  0
SECTION
  2
HEADER
  9
$ACADVER
  1
AC1032
  9
$ACADMAINTVER
 90
       55
  9
$DWGCODEPAGE
  3
ANSI_1252
  9
$LASTSAVEDBY
  1
Kinzel Wood Products
  9
$REQUIREDVERSIONS
160
                 0
  9
$INSBASE
 10
0.0
 20
0.0
 30
0.0
  9
$EXTMIN
 10
-0.0000000000000018
 20
-0.0000000000000009
 30
0.0
  9
$EXTMAX
 10
25.75
 20
42.0002812893724
 30
0.0
  9
$LIMMIN
 10
0.0
 20
0.0
  9
$LIMMAX
 10
12.0
 20
9.0
  9
$ORTHOMODE
 70
     1
  9
$REGENMODE
 70
     1
  9
$FILLMODE
 70
     1
  9
$QTEXTMODE
 70
     0
  9
$MIRRTEXT
 70
     0
  9
$LTSCALE
 40
1.0
  9
$ATTMODE
 70
     1
  9
$TEXTSIZE
 40
0.2
  9
$TRACEWID
 40
0.05
  9
$TEXTSTYLE
  7
Standard
  9
$CLAYER
  8
0
  9
$CELTYPE
  6
ByLayer
  9
$CECOLOR
 62
   256
  9
$CELTSCALE
 40
1.0
  9
$DISPSILH
 70
     0
  9
$DIMSCALE
 40
1.0
  9
$DIMASZ
 40
0.18
  9
$DIMEXO
 40
0.0625
  9
$DIMDLI
 40
0.38
  9
$DIMRND
 40
0.0
  9
$DIMDLE
 40
0.0
  9
$DIMEXE
 40
0.18
  9
$DIMTP
 40
0.0
  9
$DIMTM
 40
0.0
  9
$DIMTXT
 40
0.18
  9
$DIMCEN
 40
0.09
  9
$DIMTSZ
 40
0.0
  9
$DIMTOL
 70
     0
  9
$DIMLIM
 70
     0
  9
$DIMTIH
 70
     1
  9
$DIMTOH
 70
     1
  9
$DIMSE1
 70
     0
  9
$DIMSE2
 70
     0
  9
$DIMTAD
 70
     0
  9
$DIMZIN
 70
     0
  9
$DIMBLK
  1

  9
$DIMASO
 70
     1
  9
$DIMSHO
 70
     1
  9
$DIMPOST
  1

  9
$DIMAPOST
  1

  9
$DIMALT
 70
     0
  9
$DIMALTD
 70
     2
  9
$DIMALTF
 40
25.4
  9
$DIMLFAC
 40
1.0
  9
$DIMTOFL
 70
     0
  9
$DIMTVP
 40
0.0
  9
$DIMTIX
 70
     0
  9
$DIMSOXD
 70
     0
  9
$DIMSAH
 70
     0
  9
$DIMBLK1
  1

  9
$DIMBLK2
  1

  9
$DIMSTYLE
  2
Standard
  9
$DIMCLRD
 70
     0
  9
$DIMCLRE
 70
     0
  9
$DIMCLRT
 70
     0
  9
$DIMTFAC
 40
1.0
  9
$DIMGAP
 40
0.09
  9
$DIMJUST
 70
     0
  9
$DIMSD1
 70
     0
  9
$DIMSD2
 70
     0
  9
$DIMTOLJ
 70
     1
  9
$DIMTZIN
 70
     0
  9
$DIMALTZ
 70
     0
  9
$DIMALTTZ
 70
     0
  9
$DIMUPT
 70
     0
  9
$DIMDEC
 70
     4
  9
$DIMTDEC
 70
     4
  9
$DIMALTU
 70
     2
  9
$DIMALTTD
 70
     2
  9
$DIMTXSTY
  7
Standard
  9
$DIMAUNIT
 70
     0
  9
$DIMADEC
 70
     0
  9
$DIMALTRND
 40
0.0
  9
$DIMAZIN
 70
     0
  9
$DIMDSEP
 70
    46
  9
$DIMATFIT
 70
     3
  9
$DIMFRAC
 70
     0
  9
$DIMLDRBLK
  1

  9
$DIMLUNIT
 70
     2
  9
$DIMLWD
 70
    -2
  9
$DIMLWE
 70
    -2
  9
$DIMTMOVE
 70
     0
  9
$DIMFXL
 40
1.0
  9
$DIMFXLON
 70
     0
  9
$DIMJOGANG
 40
0.7853981633974483
  9
$DIMTFILL
 70
     0
  9
$DIMTFILLCLR
 70
     0
  9
$DIMARCSYM
 70
     0
  9
$DIMLTYPE
  6

  9
$DIMLTEX1
  6

  9
$DIMLTEX2
  6

  9
$DIMTXTDIRECTION
 70
     0
  9
$LUNITS
 70
     2
  9
$LUPREC
 70
     4
  9
$SKETCHINC
 40
0.1
  9
$FILLETRAD
 40
0.0
  9
$AUNITS
 70
     0
  9
$AUPREC
 70
     0
  9
$MENU
  1
.
  9
$ELEVATION
 40
0.0
  9
$PELEVATION
 40
0.0
  9
$THICKNESS
 40
0.0
  9
$LIMCHECK
 70
     0
  9
$CHAMFERA
 40
0.0
  9
$CHAMFERB
 40
0.0
  9
$CHAMFERC
 40
0.0
  9
$CHAMFERD
 40
0.0
  9
$SKPOLY
 70
     0
  9
$TDCREATE
 40
2452642.855050937
  9
$TDUCREATE
 40
2452643.063384271
  9
$TDUPDATE
 40
2460133.324217512
  9
$TDUUPDATE
 40
2460133.532550845
  9
$TDINDWG
 40
0.0007042708
  9
$TDUSRTIMER
 40
0.0007045139
  9
$USRTIMER
 70
     1
  9
$ANGBASE
 50
0.0
  9
$ANGDIR
 70
     0
  9
$PDMODE
 70
     0
  9
$PDSIZE
 40
0.0
  9
$PLINEWID
 40
0.0
  9
$SPLFRAME
 70
     0
  9
$SPLINETYPE
 70
     6
  9
$SPLINESEGS
 70
     8
  9
$HANDSEED
  5
4EF
  9
$SURFTAB1
 70
     6
  9
$SURFTAB2
 70
     6
  9
$SURFTYPE
 70
     6
  9
$SURFU
 70
     6
  9
$SURFV
 70
     6
  9
$UCSBASE
  2

  9
$UCSNAME
  2

  9
$UCSORG
 10
0.0
 20
0.0
 30
0.0
  9
$UCSXDIR
 10
1.0
 20
0.0
 30
0.0
  9
$UCSYDIR
 10
0.0
 20
1.0
 30
0.0
  9
$UCSORTHOREF
  2

  9
$UCSORTHOVIEW
 70
     0
  9
$UCSORGTOP
 10
0.0
 20
0.0
 30
0.0
  9
$UCSORGBOTTOM
 10
0.0
 20
0.0
 30
0.0
  9
$UCSORGLEFT
 10
0.0
 20
0.0
 30
0.0
  9
$UCSORGRIGHT
 10
0.0
 20
0.0
 30
0.0
  9
$UCSORGFRONT
 10
0.0
 20
0.0
 30
0.0
  9
$UCSORGBACK
 10
0.0
 20
0.0
 30
0.0
  9
$PUCSBASE
  2

  9
$PUCSNAME
  2

  9
$PUCSORG
 10
0.0
 20
0.0
 30
0.0
  9
$PUCSXDIR
 10
1.0
 20
0.0
 30
0.0
  9
$PUCSYDIR
 10
0.0
 20
1.0
 30
0.0
  9
$PUCSORTHOREF
  2

  9
$PUCSORTHOVIEW
 70
     0
  9
$PUCSORGTOP
 10
0.0
 20
0.0
 30
0.0
  9
$PUCSORGBOTTOM
 10
0.0
 20
0.0
 30
0.0
  9
$PUCSORGLEFT
 10
0.0
 20
0.0
 30
0.0
  9
$PUCSORGRIGHT
 10
0.0
 20
0.0
 30
0.0
  9
$PUCSORGFRONT
 10
0.0
 20
0.0
 30
0.0
  9
$PUCSORGBACK
 10
0.0
 20
0.0
 30
0.0
  9
$USERI1
 70
     0
  9
$USERI2
 70
     0
  9
$USERI3
 70
     0
  9
$USERI4
 70
     0
  9
$USERI5
 70
     0
  9
$USERR1
 40
0.0
  9
$USERR2
 40
0.0
  9
$USERR3
 40
0.0
  9
$USERR4
 40
0.0
  9
$USERR5
 40
0.0
  9
$WORLDVIEW
 70
     1
  9
$SHADEDGE
 70
     3
  9
$SHADEDIF
 70
    70
  9
$TILEMODE
 70
     1
  9
$MAXACTVP
 70
    64
  9
$PINSBASE
 10
0.0
 20
0.0
 30
0.0
  9
$PLIMCHECK
 70
     0
  9
$PEXTMIN
 10
0.0
 20
0.0
 30
0.0
  9
$PEXTMAX
 10
0.0
 20
0.0
 30
0.0
  9
$PLIMMIN
 10
0.0
 20
0.0
  9
$PLIMMAX
 10
0.0
 20
0.0
  9
$UNITMODE
 70
     0
  9
$VISRETAIN
 70
     1
  9
$PLINEGEN
 70
     0
  9
$PSLTSCALE
 70
     1
  9
$TREEDEPTH
 70
  3020
  9
$CMLSTYLE
  2
Standard
  9
$CMLJUST
 70
     0
  9
$CMLSCALE
 40
1.0
  9
$PROXYGRAPHICS
 70
     1
  9
$MEASUREMENT
 70
     0
  9
$CELWEIGHT
370
    -1
  9
$ENDCAPS
280
     0
  9
$JOINSTYLE
280
     0
  9
$LWDISPLAY
290
     0
  9
$INSUNITS
 70
     1
  9
$HYPERLINKBASE
  1

  9
$STYLESHEET
  1

  9
$XEDIT
290
     1
  9
$CEPSNTYPE
380
     0
  9
$PSTYLEMODE
290
     1
  9
$FINGERPRINTGUID
  2
{FDEAD576-A652-11D2-9A35-0060089B3A3F}
  9
$VERSIONGUID
  2
{FBC2AE19-5C5C-49EC-81BC-71B1A3362A02}
  9
$EXTNAMES
290
     1
  9
$PSVPSCALE
 40
0.0
  9
$OLESTARTUP
290
     0
  9
$SORTENTS
280
   127
  9
$INDEXCTL
280
     0
  9
$HIDETEXT
280
     1
  9
$XCLIPFRAME
280
     0
  9
$HALOGAP
280
     0
  9
$OBSCOLOR
 70
   257
  9
$OBSLTYPE
280
     0
  9
$INTERSECTIONDISPLAY
280
     0
  9
$INTERSECTIONCOLOR
 70
   257
  9
$DIMASSOC
280
     2
  9
$PROJECTNAME
  1

  9
$CAMERADISPLAY
290
     0
  9
$LENSLENGTH
 40
50.0
  9
$CAMERAHEIGHT
 40
0.0
  9
$STEPSPERSEC
 40
2.0
  9
$STEPSIZE
 40
6.0
  9
$3DDWFPREC
 40
2.0
  9
$PSOLWIDTH
 40
0.25
  9
$PSOLHEIGHT
 40
4.0
  9
$LOFTANG1
 40
1.570796326794897
  9
$LOFTANG2
 40
1.570796326794897
  9
$LOFTMAG1
 40
0.0
  9
$LOFTMAG2
 40
0.0
  9
$LOFTPARAM
 70
     7
  9
$LOFTNORMALS
280
     1
  9
$LATITUDE
 40
37.795
  9
$LONGITUDE
 40
-122.394
  9
$NORTHDIRECTION
 40
0.0
  9
$TIMEZONE
 70
 -8000
  9
$LIGHTGLYPHDISPLAY
280
     1
  9
$TILEMODELIGHTSYNCH
280
     1
  9
$SOLIDHIST
280
     1
  9
$SHOWHIST
280
     1
  9
$DWFFRAME
280
     2
  9
$DGNFRAME
280
     2
  9
$REALWORLDSCALE
290
     1
  9
$INTERFERECOLOR
 62
     1
  9
$CSHADOW
280
     0
  9
$SHADOWPLANELOCATION
 40
0.0
  0
ENDSEC
  0
SECTION
  2
CLASSES
  0
CLASS
  1
ACDBDICTIONARYWDFLT
  2
AcDbDictionaryWithDefault
  3
ObjectDBX Classes
 90
        0
 91
        3
280
     0
281
     0
  0
CLASS
  1
ACDBPLACEHOLDER
  2
AcDbPlaceHolder
  3
ObjectDBX Classes
 90
        0
 91
        1
280
     0
281
     0
  0
CLASS
  1
LAYOUT
  2
AcDbLayout
  3
ObjectDBX Classes
 90
        0
 91
        1
280
     0
281
     0
  0
CLASS
  1
DICTIONARYVAR
  2
AcDbDictionaryVar
  3
ObjectDBX Classes
 90
        0
 91
        3
280
     0
281
     0
  0
CLASS
  1
TABLESTYLE
  2
AcDbTableStyle
  3
ObjectDBX Classes
 90
     4095
 91
        3
280
     0
281
     0
  0
CLASS
  1
MATERIAL
  2
AcDbMaterial
  3
ObjectDBX Classes
 90
     1153
 91
        3
280
     0
281
     0
  0
CLASS
  1
VISUALSTYLE
  2
AcDbVisualStyle
  3
ObjectDBX Classes
 90
     4095
 91
        3
280
     0
281
     0
  0
CLASS
  1
SCALE
  2
AcDbScale
  3
ObjectDBX Classes
 90
     1153
 91
        3
280
     0
281
     0
  0
CLASS
  1
CELLSTYLEMAP
  2
AcDbCellStyleMap
  3
ObjectDBX Classes
 90
     1152
 91
        3
280
     0
281
     0
  0
CLASS
  1
RASTERVARIABLES
  2
AcDbRasterVariables
  3
ISM
 90
        0
 91
        3
280
     0
281
     0
  0
CLASS
  1
SUN
  2
AcDbSun
  3
SCENEOE
 90
     1153
 91
        3
280
     0
281
     0
  0
CLASS
  1
MLEADERSTYLE
  2
AcDbMLeaderStyle
  3
ACDB_MLEADERSTYLE_CLASS
 90
     4095
 91
        3
280
     0
281
     0
  0
ENDSEC
  0
SECTION
  2
TABLES
  0
TABLE
  2
VPORT
  5
8
330
0
100
AcDbSymbolTable
 70
     1
  0
VPORT
  5
94
330
8
100
AcDbSymbolTableRecord
100
AcDbViewportTableRecord
  2
*Active
 70
     0
 10
0.0
 20
0.0
 11
1.0
 21
1.0
 12
40.54459356597983
 22
40.53884360254823
 13
0.0
 23
0.0
 14
0.5
 24
0.5
 15
0.5
 25
0.5
 16
0.0
 26
0.0
 36
1.0
 17
-27.66959356597983
 27
-19.53870295786203
 37
0.0
 40
42.84028691515984
 41
2.738944365192582
 42
50.0
 43
0.0
 44
0.0
 50
0.0
 51
0.0
 71
    16
 72
  1000
 73
     1
 74
     3
 75
     0
 76
     0
 77
     0
 78
     0
281
     0
 65
     1
110
0.0
120
0.0
130
0.0
111
1.0
121
0.0
131
0.0
112
0.0
122
1.0
132
0.0
 79
     0
146
0.0
348
9F
 60
     2
 61
     5
292
     1
282
     1
141
0.0
142
0.0
 63
   250
421
  3355443
361
EF
  0
ENDTAB
  0
TABLE
  2
LTYPE
  5
5
330
0
100
AcDbSymbolTable
 70
     1
  0
LTYPE
  5
14
330
5
100
AcDbSymbolTableRecord
100
AcDbLinetypeTableRecord
  2
ByBlock
 70
     0
  3

 72
    65
 73
     0
 40
0.0
  0
LTYPE
  5
15
330
5
100
AcDbSymbolTableRecord
100
AcDbLinetypeTableRecord
  2
ByLayer
 70
     0
  3

 72
    65
 73
     0
 40
0.0
  0
LTYPE
  5
16
330
5
100
AcDbSymbolTableRecord
100
AcDbLinetypeTableRecord
  2
Continuous
 70
     0
  3
Solid line
 72
    65
 73
     0
 40
0.0
  0
ENDTAB
  0
TABLE
  2
LAYER
  5
2
330
0
100
AcDbSymbolTable
 70
     1
  0
LAYER
  5
10
330
2
100
AcDbSymbolTableRecord
100
AcDbLayerTableRecord
  2
0
 70
     0
 62
     7
  6
Continuous
370
    -3
390
F
347
98
348
0
  0
ENDTAB
  0
TABLE
  2
STYLE
  5
3
330
0
100
AcDbSymbolTable
 70
     2
  0
STYLE
  5
11
330
3
100
AcDbSymbolTableRecord
100
AcDbTextStyleTableRecord
  2
Standard
 70
     0
 40
0.0
 41
1.0
 50
0.0
 71
     0
 42
0.2
  3
arial.ttf
  4

1001
ACAD
1000
Arial
1071
        0
  0
STYLE
  5
127
330
3
100
AcDbSymbolTableRecord
100
AcDbTextStyleTableRecord
  2
Annotative
 70
     0
 40
0.0
 41
1.0
 50
0.0
 71
     0
 42
0.2
  3
arial.ttf
  4

1001
ACAD
1000
Arial
1071
        0
1001
AcadAnnotative
1000
AnnotativeData
1002
{
1070
     1
1070
     1
1002
}
  0
ENDTAB
  0
TABLE
  2
VIEW
  5
6
330
0
100
AcDbSymbolTable
 70
     0
  0
ENDTAB
  0
TABLE
  2
UCS
  5
7
330
0
100
AcDbSymbolTable
 70
     0
  0
ENDTAB
  0
TABLE
  2
APPID
  5
9
330
0
100
AcDbSymbolTable
 70
     2
  0
APPID
  5
12
330
9
100
AcDbSymbolTableRecord
100
AcDbRegAppTableRecord
  2
ACAD
 70
     0
  0
APPID
  5
128
330
9
100
AcDbSymbolTableRecord
100
AcDbRegAppTableRecord
  2
AcadAnnotative
 70
     0
  0
ENDTAB
  0
TABLE
  2
DIMSTYLE
  5
A
330
0
100
AcDbSymbolTable
 70
     3
100
AcDbDimStyleTable
  0
DIMSTYLE
105
27
330
A
100
AcDbSymbolTableRecord
100
AcDbDimStyleTableRecord
  2
Standard
 70
     0
178
     0
340
11
  0
DIMSTYLE
105
E1
330
A
100
AcDbSymbolTableRecord
100
AcDbDimStyleTableRecord
  2
Ansi1
 70
     0
178
     0
340
11
  0
DIMSTYLE
105
129
330
A
100
AcDbSymbolTableRecord
100
AcDbDimStyleTableRecord
  2
Annotative
 70
     0
 40
0.0
178
     0
340
11
1001
AcadAnnotative
1000
AnnotativeData
1002
{
1070
     1
1070
     1
1002
}
  0
ENDTAB
  0
TABLE
  2
BLOCK_RECORD
  5
1
330
0
100
AcDbSymbolTable
 70
     1
  0
BLOCK_RECORD
  5
1F
330
1
100
AcDbSymbolTableRecord
100
AcDbBlockTableRecord
  2
*Model_Space
340
22
 70
     0
280
     1
281
     0
  0
BLOCK_RECORD
  5
58
330
1
100
AcDbSymbolTableRecord
100
AcDbBlockTableRecord
  2
*Paper_Space
340
59
 70
     0
280
     1
281
     0
  0
BLOCK_RECORD
  5
5D
330
1
100
AcDbSymbolTableRecord
100
AcDbBlockTableRecord
  2
*Paper_Space0
340
5E
 70
     0
280
     1
281
     0
  0
ENDTAB
  0
ENDSEC
  0
SECTION
  2
BLOCKS
  0
BLOCK
  5
20
330
1F
100
AcDbEntity
  8
0
100
AcDbBlockBegin
  2
*Model_Space
 70
     0
 10
0.0
 20
0.0
 30
0.0
  3
*Model_Space
  1

  0
ENDBLK
  5
21
330
1F
100
AcDbEntity
  8
0
100
AcDbBlockEnd
  0
BLOCK
  5
5A
330
58
100
AcDbEntity
 67
     1
  8
0
100
AcDbBlockBegin
  2
*Paper_Space
 70
     0
 10
0.0
 20
0.0
 30
0.0
  3
*Paper_Space
  1

  0
ENDBLK
  5
5B
330
58
100
AcDbEntity
 67
     1
  8
0
100
AcDbBlockEnd
  0
BLOCK
  5
5F
330
5D
100
AcDbEntity
  8
0
100
AcDbBlockBegin
  2
*Paper_Space0
 70
     0
 10
0.0
 20
0.0
 30
0.0
  3
*Paper_Space0
  1

  0
ENDBLK
  5
60
330
5D
100
AcDbEntity
  8
0
100
AcDbBlockEnd
  0
ENDSEC
  0
SECTION
  2
ENTITIES
  0
SPLINE
  5
194
330
1F
100
AcDbEntity
  8
0
  6
Continuous
 62
     7
370
    25
100
AcDbSpline
210
0.0
220
0.0
230
1.0
 70
    24
 71
     3
 72
    11
 73
     7
 74
     0
 42
0.000000001
 43
0.00000001
 40
0.0
 40
0.0
 40
0.0
 40
0.0
 40
0.125579991049252
 40
0.3428415489901256
 40
0.5601707431934019
 40
1.0
 40
1.0
 40
1.0
 40
1.0
 10
1.75
 20
4.96483151440765
 30
0.0
 10
1.75
 20
4.965659012835404
 30
0.0
 10
1.75
 20
4.96791813740125
 30
0.0
 10
1.75
 20
4.950907595637603
 30
0.0
 10
1.75
 20
4.913297681722884
 30
0.0
 10
1.75
 20
4.867153507403752
 30
0.0
 10
1.75
 20
4.836269695644886
 30
0.0
  0
SPLINE
  5
195
330
1F
100
AcDbEntity
  8
0
  6
Continuous
 62
     7
370
    25
100
AcDbSpline
210
0.0
220
0.0
230
1.0
 70
     8
 71
     3
 72
    23
 73
    19
 74
     0
 42
0.000000001
 43
0.00000001
 40
0.0
 40
0.0
 40
0.0
 40
0.0
 40
0.1250000000000001
 40
0.1250000000000001
 40
0.2500000000000001
 40
0.2500000000000001
 40
0.375
 40
0.375
 40
0.5
 40
0.5
 40
0.5624999999999999
 40
0.5624999999999999
 40
0.625
 40
0.625
 40
0.7499999999999999
 40
0.7499999999999999
 40
0.8749999999999999
 40
1.0
 40
1.0
 40
1.0
 40
1.0
 10
1.75
 20
4.836269695644886
 30
0.0
 10
1.679645664433157
 20
4.854376496964863
 30
0.0
 10
1.609033409807326
 20
4.871473948304146
 30
0.0
 10
1.467046570578436
 20
4.902685520666521
 30
0.0
 10
1.395671950324837
 20
4.916799502173477
 30
0.0
 10
1.251815158852548
 20
4.940693134294508
 30
0.0
 10
1.17932960512847
 20
4.950459547686942
 30
0.0
 10
1.032846037397024
 20
4.96407345648361
 30
0.0
 10
0.9588403917007515
 20
4.967891085754339
 30
0.0
 10
0.8464752994129823
 20
4.968308468148862
 30
0.0
 10
0.8087959215477754
 20
4.967569627368221
 30
0.0
 10
0.7329816612670379
 20
4.964309357459723
 30
0.0
 10
0.6952018338307842
 20
4.961801969685947
 30
0.0
 10
0.5826776548308844
 20
4.951930552926202
 30
0.0
 10
0.5085309578252332
 20
4.942210290916552
 30
0.0
 10
0.3615111143696229
 20
4.918171219765854
 30
0.0
 10
0.2157564298639326
 20
4.889563901964939
 30
0.0
 10
0.0717262880931092
 20
4.854729590652883
 30
0.0
 10
0.0000000000000001
 20
4.836269695644886
 30
0.0
  0
SPLINE
  5
196
330
1F
100
AcDbEntity
  8
0
  6
Continuous
 62
     7
370
    25
100
AcDbSpline
210
0.0
220
0.0
230
1.0
 70
    24
 71
     3
 72
    11
 73
     7
 74
     0
 42
0.000000001
 43
0.00000001
 40
0.0
 40
0.0
 40
0.0
 40
0.0
 40
0.2787361087886346
 40
0.5573678938775447
 40
0.8415344705516247
 40
1.0
 40
1.0
 40
1.0
 40
1.0
 10
0.0000000000000001
 20
4.836269695644886
 30
0.0
 10
0.0000000000000001
 20
4.856153755823862
 30
0.0
 10
0.0000000000000003
 20
4.895914434093553
 30
0.0
 10
0.0000000000000003
 20
4.940429256085474
 30
0.0
 10
0.0
 20
4.96633980304912
 30
0.0
 10
0.0000000000000001
 20
4.965229139924686
 30
0.0
 10
0.0000000000000001
 20
4.96483151440765
 30
0.0
  0
SPLINE
  5
197
330
1F
100
AcDbEntity
  8
0
  6
Continuous
 62
     7
370
    25
100
AcDbSpline
210
0.0
220
0.0
230
1.0
 70
    24
 71
     3
 72
    22
 73
    18
 74
     0
 42
0.000000001
 43
0.00000001
 40
0.0
 40
0.0
 40
0.0
 40
0.0
 40
0.125
 40
0.125
 40
0.25
 40
0.25
 40
0.375
 40
0.375
 40
0.5
 40
0.5
 40
0.625
 40
0.625
 40
0.75
 40
0.75
 40
0.875
 40
0.875
 40
1.0
 40
1.0
 40
1.0
 40
1.0
 10
1.328000000000032
 20
25.449652498917
 30
0.0
 10
1.328000000000032
 20
25.449652498917
 30
0.0
 10
1.316209622530769
 20
25.449652498917
 30
0.0
 10
1.270825233924465
 20
25.449652498917
 30
0.0
 10
1.237249079606336
 20
25.449652498917
 30
0.0
 10
1.153389664148535
 20
25.449652498917
 30
0.0
 10
1.103139398107882
 20
25.449652498917
 30
0.0
 10
0.993571791614551
 20
25.449652498917
 30
0.0
 10
0.9342975613362721
 20
25.449652498917
 30
0.0
 10
0.815702438663207
 20
25.449652498917
 30
0.0
 10
0.7564282083849425
 20
25.449652498917
 30
0.0
 10
0.6468606018916669
 20
25.449652498917
 30
0.0
 10
0.5966103358510537
 20
25.449652498917
 30
0.0
 10
0.5127509203933553
 20
25.449652498917
 30
0.0
 10
0.479174766075287
 20
25.449652498917
 30
0.0
 10
0.4337903774691159
 20
25.44965249891701
 30
0.0
 10
0.4219999999999253
 20
25.44965249891701
 30
0.0
 10
0.4219999999999973
 20
25.449652498917
 30
0.0
  0
SPLINE
  5
198
330
1F
100
AcDbEntity
  8
0
  6
Continuous
 62
     7
370
    25
100
AcDbSpline
210
0.0
220
0.0
230
1.0
 70
    24
 71
     3
 72
    24
 73
    20
 74
     0
 42
0.000000001
 43
0.00000001
 40
0.0
 40
0.0
 40
0.0
 40
0.0
 40
0.0000146617744459
 40
0.062514661774446
 40
0.1250146617744458
 40
0.1875146617744458
 40
0.2500146617744462
 40
0.312514661774446
 40
0.375014661774446
 40
0.4375146617744461
 40
0.5000146617744459
 40
0.5625146617744456
 40
0.6250146617744456
 40
0.6875146617744458
 40
0.7500146617744459
 40
0.8125146617744459
 40
0.8750146617744461
 40
0.9375146617744461
 40
1.0
 40
1.0
 40
1.0
 40
1.0
 10
1.328210593967946
 20
6.079652498917003
 30
0.0
 10
1.328211275073292
 20
6.079652498917003
 30
0.0
 10
1.331115362190452
 20
6.079652498917003
 30
0.0
 10
1.321023033663487
 20
6.079652498917003
 30
0.0
 10
1.296773813012707
 20
6.079652498917003
 30
0.0
 10
1.254164988634165
 20
6.079652498917003
 30
0.0
 10
1.197561445147566
 20
6.079652498917003
 30
0.0
 10
1.128407603777735
 20
6.079652498917003
 30
0.0
 10
1.049556841303386
 20
6.079652498917003
 30
0.0
 10
0.9639868357669483
 20
6.079652498917003
 30
0.0
 10
0.8750002112139558
 20
6.079652498917003
 30
0.0
 10
0.7860123193772286
 20
6.079652498917003
 30
0.0
 10
0.700446115691995
 20
6.079652498917003
 30
0.0
 10
0.621581413096565
 20
6.079652498917003
 30
0.0
 10
0.5524795303598544
 20
6.079652498917003
 30
0.0
 10
0.4956820924618534
 20
6.079652498917003
 30
0.0
 10
0.4537968870957999
 20
6.079652498917003
 30
0.0
 10
0.4268491921767217
 20
6.079652498917003
 30
0.0
 10
0.4234758695077483
 20
6.079652498917003
 30
0.0
 10
0.4217894060320538
 20
6.079652498917003
 30
0.0
  0
LINE
  5
199
330
1F
100
AcDbEntity
  8
0
  6
Continuous
 62
     7
370
    25
100
AcDbLine
 10
1.75
 20
4.96818592706141
 30
0.0
 11
1.530712636846521
 21
5.047999999999998
 31
0.0
  0
LINE
  5
19A
330
1F
100
AcDbEntity
  8
0
  6
Continuous
 62
     7
370
    25
100
AcDbLine
 10
0.2192873631534795
 20
5.047999999999998
 30
0.0
 11
0.0
 21
4.96818592706141
 31
0.0
  0
LINE
  5
19B
330
1F
100
AcDbEntity
  8
0
  6
Continuous
 62
     7
370
    25
100
AcDbLine
 10
1.719999999997003
 20
17.1206380459102
 30
0.0
 11
1.328000000000032
 21
25.449652498917
 31
0.0
  0
LINE
  5
19C
330
1F
100
AcDbEntity
  8
0
  6
Continuous
 62
     7
370
    25
100
AcDbLine
 10
0.4219999999999973
 20
25.449652498917
 30
0.0
 11
0.0300000000030142
 21
17.1206380459102
 31
0.0
  0
LINE
  5
19D
330
1F
100
AcDbEntity
  8
0
  6
Continuous
 62
     7
370
    25
100
AcDbLine
 10
0.030000000034751
 20
14.4086669519265
 30
0.0
 11
0.4220000000000003
 21
6.079652498917001
 31
0.0
  0
LINE
  5
19E
330
1F
100
AcDbEntity
  8
0
  6
Continuous
 62
     7
370
    25
100
AcDbLine
 10
1.328
 20
6.079652498917001
 30
0.0
 11
1.719999999965262
 21
14.4086669519265
 31
0.0
  0
LINE
  5
19F
330
1F
100
AcDbEntity
  8
0
  6
Continuous
 62
     7
370
    25
100
AcDbLine
 10
1.530712686909267
 20
25.91765233517551
 30
0.0
 11
1.530712686909268
 21
26.04271617143206
 31
0.0
  0
LINE
  5
1A0
330
1F
100
AcDbEntity
  8
0
  6
Continuous
 62
     7
370
    25
100
AcDbLine
 10
0.2192873130907393
 20
26.04271617143207
 30
0.0
 11
0.2192873130907387
 21
25.91765233517552
 31
0.0
  0
LINE
  5
1A1
330
1F
100
AcDbEntity
  8
0
  6
Continuous
 62
     7
370
    25
100
AcDbLine
 10
1.530712636846586
 20
5.485872327478432
 30
0.0
 11
1.530712636846586
 21
5.610936163734786
 31
0.0
  0
LINE
  5
1A2
330
1F
100
AcDbEntity
  8
0
  6
Continuous
 62
     7
370
    25
100
AcDbLine
 10
0.2192873631534139
 20
5.610936163734786
 30
0.0
 11
0.2192873631534139
 21
5.485872327478432
 31
0.0
  0
LINE
  5
1A3
330
1F
100
AcDbEntity
  8
0
  6
Continuous
 62
     7
370
    25
100
AcDbLine
 10
1.530712636840839
 20
26.48065233517696
 30
0.0
 11
1.53071263684084
 21
26.60571633517695
 31
0.0
  0
LINE
  5
1A4
330
1F
100
AcDbEntity
  8
0
  6
Continuous
 62
     7
370
    25
100
AcDbLine
 10
0.2192873631591731
 20
26.60571633517696
 30
0.0
 11
0.2192873631591724
 21
26.48065233517696
 31
0.0
  0
LINE
  5
1A5
330
1F
100
AcDbEntity
  8
0
  6
Continuous
 62
     7
370
    25
100
AcDbLine
 10
0.4217873631533617
 20
6.079652498917003
 30
0.0
 11
0.4842873631532686
 21
6.06054433132582
 31
0.0
  0
LINE
  5
1A6
330
1F
100
AcDbEntity
  8
0
  6
Continuous
 62
     7
370
    25
100
AcDbLine
 10
1.265712636846732
 20
6.06054433132582
 30
0.0
 11
1.328212636846638
 21
6.079652498917003
 31
0.0
  0
LINE
  5
1A7
330
1F
100
AcDbEntity
  8
0
  6
Continuous
 62
     7
370
    25
100
AcDbLine
 10
1.328212636845184
 20
25.449652498917
 30
0.0
 11
1.265712636848142
 21
25.46876066650825
 31
0.0
  0
LINE
  5
1A8
330
1F
100
AcDbEntity
  8
0
  6
Continuous
 62
     7
370
    25
100
AcDbLine
 10
0.4842873631518598
 20
25.46876066650826
 30
0.0
 11
0.4217873631548166
 21
25.449652498917
 31
0.0
  0
LINE
  5
1A9
330
1F
100
AcDbEntity
  8
0
  6
Continuous
 62
     7
370
    25
100
AcDbLine
 10
0.4217873130905971
 20
25.63715233517482
 30
0.0
 11
0.4842873631518598
 21
25.61804433132588
 31
0.0
  0
LINE
  5
1AA
330
1F
100
AcDbEntity
  8
0
  6
Continuous
 62
     7
370
    25
100
AcDbLine
 10
1.265712636848143
 20
25.61804433132587
 30
0.0
 11
1.328212686909406
 21
25.63715233517481
 31
0.0
  0
LINE
  5
1AB
330
1F
100
AcDbEntity
  8
0
  6
Continuous
 62
     7
370
    25
100
AcDbLine
 10
1.328212636848002
 20
26.88621633517348
 30
0.0
 11
1.250000000000118
 21
26.91012833793567
 31
0.0
  0
LINE
  5
1AC
330
1F
100
AcDbEntity
  8
0
  6
Continuous
 62
     7
370
    25
100
AcDbLine
 10
0.4999999999998982
 20
26.91012833793567
 30
0.0
 11
0.4217873631520158
 21
26.88621633517348
 31
0.0
  0
LINE
  5
1AD
330
1F
100
AcDbEntity
  8
0
  6
Continuous
 62
     7
370
    25
100
AcDbLine
 10
1.328212636846708
 20
5.891436163734637
 30
0.0
 11
1.265712636846732
 21
5.910544331325821
 31
0.0
  0
LINE
  5
1AE
330
1F
100
AcDbEntity
  8
0
  6
Continuous
 62
     7
370
    25
100
AcDbLine
 10
0.4842873631532685
 20
5.910544331325821
 30
0.0
 11
0.4217873631532917
 21
5.891436163734637
 31
0.0
  0
LINE
  5
1AF
330
1F
100
AcDbEntity
  8
0
  6
Continuous
 62
     7
370
    25
100
AcDbLine
 10
0.4674999999987842
 20
16.68154124248384
 30
0.0
 11
0.5200000000023572
 21
16.6654903817156
 31
0.0
  0
LINE
  5
1B0
330
1F
100
AcDbEntity
  8
0
  6
Continuous
 62
     7
370
    25
100
AcDbLine
 10
1.229999999997659
 20
16.6654903817156
 30
0.0
 11
1.282500000001232
 21
16.68154124248384
 31
0.0
  0
LINE
  5
1B1
330
1F
100
AcDbEntity
  8
0
  6
Continuous
 62
     7
370
    25
100
AcDbLine
 10
1.282500000001128
 20
14.84776375534199
 30
0.0
 11
1.230000000000204
 21
14.86381461611875
 31
0.0
  0
LINE
  5
1B2
330
1F
100
AcDbEntity
  8
0
  6
Continuous
 62
     7
370
    25
100
AcDbLine
 10
0.5199999999998097
 20
14.86381461611875
 30
0.0
 11
0.4674999999988857
 21
14.84776375534199
 31
0.0
  0
LINE
  5
1B3
330
1F
100
AcDbEntity
  8
0
  6
Continuous
 62
     7
370
    25
100
AcDbLine
 10
1.265712636848142
 20
25.46876066650825
 30
0.0
 11
1.265712636848143
 21
25.61804433132587
 31
0.0
  0
LINE
  5
1B4
330
1F
100
AcDbEntity
  8
0
  6
Continuous
 62
     7
370
    25
100
AcDbLine
 10
0.4842873631518602
 20
25.61804433132588
 30
0.0
 11
0.4842873631518594
 21
25.46876066650826
 31
0.0
  0
LINE
  5
1B5
330
1F
100
AcDbEntity
  8
0
  6
Continuous
 62
     7
370
    25
100
AcDbLine
 10
1.265712636846732
 20
5.910544331325821
 30
0.0
 11
1.265712636846732
 21
6.06054433132582
 31
0.0
  0
LINE
  5
1B6
330
1F
100
AcDbEntity
  8
0
  6
Continuous
 62
     7
370
    25
100
AcDbLine
 10
0.4842873631532686
 20
6.06054433132582
 30
0.0
 11
0.4842873631532686
 21
5.910544331325821
 31
0.0
  0
LINE
  5
1B7
330
1F
100
AcDbEntity
  8
0
  6
Continuous
 62
     7
370
    25
100
AcDbLine
 10
1.250000000000118
 20
26.91012833793622
 30
0.0
 11
1.250000000000118
 21
32.00012833793622
 31
0.0
  0
LINE
  5
1B8
330
1F
100
AcDbEntity
  8
0
  6
Continuous
 62
     7
370
    25
100
AcDbLine
 10
0.499999999999898
 20
32.00012833793622
 30
0.0
 11
0.499999999999898
 21
26.91012833793622
 31
0.0
  0
LINE
  5
1B9
330
1F
100
AcDbEntity
  8
0
  6
Continuous
 62
     7
370
    25
100
AcDbLine
 10
0.5000000000000002
 20
0.4999999999999982
 30
0.0
 11
0.5000000000000002
 21
-0.0000000000000009
 31
0.0
  0
LINE
  5
1BA
330
1F
100
AcDbEntity
  8
0
  6
Continuous
 62
     7
370
    25
100
AcDbLine
 10
1.25
 20
-0.0000000000000009
 30
0.0
 11
1.25
 21
0.4999999999999982
 31
0.0
  0
LINE
  5
1BB
330
1F
100
AcDbEntity
  8
0
  6
Continuous
 62
     7
370
    25
100
AcDbLine
 10
1.230000000000204
 20
14.86381461611875
 30
0.0
 11
1.230000000000204
 21
14.99784091841069
 31
0.0
  0
LINE
  5
1BC
330
1F
100
AcDbEntity
  8
0
  6
Continuous
 62
     7
370
    25
100
AcDbLine
 10
0.5199999999998097
 20
14.99784091841069
 30
0.0
 11
0.5199999999998096
 21
14.86381461611875
 31
0.0
  0
LINE
  5
1BD
330
1F
100
AcDbEntity
  8
0
  6
Continuous
 62
     7
370
    25
100
AcDbLine
 10
1.229999999997659
 20
16.5314640794245
 30
0.0
 11
1.229999999997659
 21
16.6654903817156
 31
0.0
  0
LINE
  5
1BE
330
1F
100
AcDbEntity
  8
0
  6
Continuous
 62
     7
370
    25
100
AcDbLine
 10
0.5200000000023575
 20
16.6654903817156
 30
0.0
 11
0.5200000000023575
 21
16.5314640794245
 31
0.0
  0
LINE
  5
1BF
330
1F
100
AcDbEntity
  8
0
  6
Continuous
 62
     7
370
    25
100
AcDbLine
 10
0.2192873631534795
 20
5.047999999999998
 30
0.0
 11
1.530712636846521
 21
5.047999999999998
 31
0.0
  0
LINE
  5
1C0
330
1F
100
AcDbEntity
  8
0
  6
Continuous
 62
     7
370
    25
100
AcDbLine
 10
1.75
 20
0.4999999999999982
 30
0.0
 11
0.0000000000000001
 21
0.4999999999999982
 31
0.0
  0
LINE
  5
1C1
330
1F
100
AcDbEntity
  8
0
  6
Continuous
 62
     7
370
    25
100
AcDbLine
 10
1.75
 20
0.4999999999999982
 30
0.0
 11
1.75
 21
4.836269695644886
 31
0.0
  0
LINE
  5
1C2
330
1F
100
AcDbEntity
  8
0
  6
Continuous
 62
     7
370
    25
100
AcDbLine
 10
0.0000000000000001
 20
0.4999999999999982
 30
0.0
 11
0.0000000000000001
 21
4.836269695644886
 31
0.0
  0
LINE
  5
1C3
330
1F
100
AcDbEntity
  8
0
  6
Continuous
 62
     7
370
    25
100
AcDbLine
 10
1.530712636846586
 20
5.485872327478432
 30
0.0
 11
0.2192873631534138
 21
5.485872327478432
 31
0.0
  0
LINE
  5
1C4
330
1F
100
AcDbEntity
  8
0
  6
Continuous
 62
     7
370
    25
100
AcDbLine
 10
1.229999999997658
 20
16.5314640794245
 30
0.0
 11
0.5200000000023577
 21
16.5314640794245
 31
0.0
  0
LINE
  5
1C5
330
1F
100
AcDbEntity
  8
0
  6
Continuous
 62
     7
370
    25
100
AcDbLine
 10
1.230000000000204
 20
14.99784091841069
 30
0.0
 11
0.5199999999998073
 21
14.99784091841069
 31
0.0
  0
LINE
  5
1C6
330
1F
100
AcDbEntity
  8
0
  6
Continuous
 62
     7
370
    25
100
AcDbLine
 10
1.719999999997003
 20
17.1206380459102
 30
0.0
 11
0.0300000000030142
 21
17.1206380459102
 31
0.0
  0
LINE
  5
1C7
330
1F
100
AcDbEntity
  8
0
  6
Continuous
 62
     7
370
    25
100
AcDbLine
 10
1.282500000001232
 20
16.68154124248384
 30
0.0
 11
0.4674999999987845
 21
16.68154124248384
 31
0.0
  0
LINE
  5
1C8
330
1F
100
AcDbEntity
  8
0
  6
Continuous
 62
     7
370
    25
100
AcDbLine
 10
1.282500000001128
 20
14.84776375534199
 30
0.0
 11
0.4674999999988856
 21
14.84776375534199
 31
0.0
  0
LINE
  5
1C9
330
1F
100
AcDbEntity
  8
0
  6
Continuous
 62
     7
370
    25
100
AcDbLine
 10
1.719999999965262
 20
14.4086669519265
 30
0.0
 11
0.030000000034751
 21
14.4086669519265
 31
0.0
  0
LINE
  5
1CA
330
1F
100
AcDbEntity
  8
0
  6
Continuous
 62
     7
370
    25
100
AcDbLine
 10
1.530712636840839
 20
26.48065233517696
 30
0.0
 11
0.2192873631591727
 21
26.48065233517696
 31
0.0
  0
LINE
  5
1CB
330
1F
100
AcDbEntity
  8
0
  6
Continuous
 62
     7
370
    25
100
AcDbLine
 10
1.530712686909268
 20
26.04271617143206
 30
0.0
 11
0.2192873130907392
 21
26.04271617143207
 31
0.0
  0
LINE
  5
1CC
330
1F
100
AcDbEntity
  8
0
  6
Continuous
 62
     7
370
    25
100
AcDbLine
 10
1.530712686909267
 20
25.91765233517551
 30
0.0
 11
0.2192873130907388
 21
25.91765233517552
 31
0.0
  0
LINE
  5
1CD
330
1F
100
AcDbEntity
  8
0
  6
Continuous
 62
     7
370
    25
100
AcDbLine
 10
1.328212686909406
 20
25.63715233517481
 30
0.0
 11
0.4217873130905971
 21
25.63715233517482
 31
0.0
  0
LINE
  5
1CE
330
1F
100
AcDbEntity
  8
0
  6
Continuous
 62
     7
370
    25
100
AcDbLine
 10
1.530712636846586
 20
5.610936163734786
 30
0.0
 11
0.2192873631534142
 21
5.610936163734786
 31
0.0
  0
LINE
  5
1CF
330
1F
100
AcDbEntity
  8
0
  6
Continuous
 62
     7
370
    25
100
AcDbLine
 10
1.328212636846708
 20
5.891436163734637
 30
0.0
 11
0.4217873631532917
 21
5.891436163734637
 31
0.0
  0
LINE
  5
1D0
330
1F
100
AcDbEntity
  8
0
  6
Continuous
 62
     7
370
    25
100
AcDbLine
 10
1.53071263684084
 20
26.60571633517695
 30
0.0
 11
0.2192873631591729
 21
26.60571633517696
 31
0.0
  0
LINE
  5
1D1
330
1F
100
AcDbEntity
  8
0
  6
Continuous
 62
     7
370
    25
100
AcDbLine
 10
1.328212636848001
 20
26.88621633517347
 30
0.0
 11
0.4217873631520146
 21
26.88621633517348
 31
0.0
  0
LINE
  5
1D2
330
1F
100
AcDbEntity
  8
0
  6
Continuous
 62
     7
370
    25
100
AcDbLine
 10
1.265712636846732
 20
6.06054433132582
 30
0.0
 11
0.4842873631532686
 21
6.06054433132582
 31
0.0
  0
LINE
  5
1D3
330
1F
100
AcDbEntity
  8
0
  6
Continuous
 62
     7
370
    25
100
AcDbLine
 10
1.265712636848142
 20
25.46876066650825
 30
0.0
 11
0.4842873631518598
 21
25.46876066650826
 31
0.0
  0
LINE
  5
1D4
330
1F
100
AcDbEntity
  8
0
  6
Continuous
 62
     7
370
    25
100
AcDbLine
 10
1.265712636848143
 20
25.61804433132587
 30
0.0
 11
0.4842873631518598
 21
25.61804433132588
 31
0.0
  0
LINE
  5
1D5
330
1F
100
AcDbEntity
  8
0
  6
Continuous
 62
     7
370
    25
100
AcDbLine
 10
0.4999999999998982
 20
26.91012833793622
 30
0.0
 11
1.250000000000117
 21
26.91012833793622
 31
0.0
  0
LINE
  5
1D6
330
1F
100
AcDbEntity
  8
0
  6
Continuous
 62
     7
370
    25
100
AcDbLine
 10
1.265712636846732
 20
5.910544331325821
 30
0.0
 11
0.4842873631532685
 21
5.910544331325821
 31
0.0
  0
LINE
  5
1D7
330
1F
100
AcDbEntity
  8
0
  6
Continuous
 62
     7
370
    25
100
AcDbLine
 10
1.229999999997659
 20
16.6654903817156
 30
0.0
 11
0.5200000000023572
 21
16.6654903817156
 31
0.0
  0
LINE
  5
1D8
330
1F
100
AcDbEntity
  8
0
  6
Continuous
 62
     7
370
    25
100
AcDbLine
 10
1.230000000000204
 20
14.86381461611875
 30
0.0
 11
0.5199999999998097
 21
14.86381461611875
 31
0.0
  0
LINE
  5
1D9
330
1F
100
AcDbEntity
  8
0
  6
Continuous
 62
     7
370
    25
100
AcDbLine
 10
0.4999999999998982
 20
32.00012833793622
 30
0.0
 11
1.250000000000117
 21
32.00012833793622
 31
0.0
  0
LINE
  5
1DA
330
1F
100
AcDbEntity
  8
0
  6
Continuous
 62
     7
370
    25
100
AcDbLine
 10
1.25
 20
-0.0000000000000009
 30
0.0
 11
0.5000000000000002
 21
-0.0000000000000009
 31
0.0
  0
ARC
  5
1DB
330
1F
100
AcDbEntity
  8
0
  6
Continuous
 62
     7
370
    25
100
AcDbCircle
 10
1.498741834019581
 20
5.26693616373922
 30
0.0
 40
0.2212581660103111
100
AcDbArc
 50
278.3080641087065
 51
81.69193589127792
  0
ARC
  5
1DC
330
1F
100
AcDbEntity
  8
0
  6
Continuous
 62
     7
370
    25
100
AcDbCircle
 10
0.2512581659804192
 20
5.26693616373922
 30
0.0
 40
0.221258166010311
100
AcDbArc
 50
98.30806410872202
 51
261.6919358912969
  0
ARC
  5
1DD
330
1F
100
AcDbEntity
  8
0
  6
Continuous
 62
     7
370
    25
100
AcDbCircle
 10
0.874999999999986
 20
15.764652498917
 30
0.0
 40
0.8449999999992573
100
AcDbArc
 50
294.8420592144319
 51
65.15794078575944
  0
ARC
  5
1DE
330
1F
100
AcDbEntity
  8
0
  6
Continuous
 62
     7
370
    25
100
AcDbCircle
 10
0.8750000000000002
 20
15.764652498917
 30
0.0
 40
0.8449999999992447
100
AcDbArc
 50
114.8420592142393
 51
245.1579407855717
  0
ARC
  5
1DF
330
1F
100
AcDbEntity
  8
0
  6
Continuous
 62
     7
370
    25
100
AcDbCircle
 10
1.869140613635473
 20
16.53453688815687
 30
0.0
 40
0.6047788767444239
100
AcDbArc
 50
104.276617946643
 51
165.9321211127136
  0
ARC
  5
1E0
330
1F
100
AcDbEntity
  8
0
  6
Continuous
 62
     7
370
    25
100
AcDbCircle
 10
-0.1191406136354601
 20
16.53453688815687
 30
0.0
 40
0.6047788767444281
100
AcDbArc
 50
14.06787888728671
 51
75.72338205335686
  0
ARC
  5
1E1
330
1F
100
AcDbEntity
  8
0
  6
Continuous
 62
     7
370
    25
100
AcDbCircle
 10
1.869140613634352
 20
14.9947681096717
 30
0.0
 40
0.6047788767441056
100
AcDbArc
 50
194.0678788875638
 51
255.7233820503577
  0
ARC
  5
1E2
330
1F
100
AcDbEntity
  8
0
  6
Continuous
 62
     7
370
    25
100
AcDbCircle
 10
-0.1191406136343427
 20
14.99476810967171
 30
0.0
 40
0.6047788767441102
100
AcDbArc
 50
284.2766179496457
 51
345.9321211124391
  0
ARC
  5
1E3
330
1F
100
AcDbEntity
  8
0
  6
Continuous
 62
     7
370
    25
100
AcDbCircle
 10
1.486521631138932
 20
26.26168424825223
 30
0.0
 40
0.2233827837511663
100
AcDbArc
 50
281.4098929930561
 51
78.59012010798565
  0
ARC
  5
1E4
330
1F
100
AcDbEntity
  8
0
  6
Continuous
 62
     7
370
    25
100
AcDbCircle
 10
0.2634783688610792
 20
26.26168424825223
 30
0.0
 40
0.2233827837511693
100
AcDbArc
 50
101.409879892014
 51
258.5901070069459
  0
ARC
  5
1E5
330
1F
100
AcDbEntity
  8
0
  6
Continuous
 62
     7
370
    25
100
AcDbCircle
 10
1.673938799549896
 20
25.60090888487372
 30
0.0
 40
0.3476206735095485
100
AcDbArc
 50
114.3316905564645
 51
174.0153803282741
  0
ARC
  5
1E6
330
1F
100
AcDbEntity
  8
0
  6
Continuous
 62
     7
370
    25
100
AcDbCircle
 10
0.0760612004501039
 20
25.60090888487372
 30
0.0
 40
0.3476206735095524
100
AcDbArc
 50
5.984619671726449
 51
65.66830944353502
  0
ARC
  5
1E7
330
1F
100
AcDbEntity
  8
0
  6
Continuous
 62
     7
370
    25
100
AcDbCircle
 10
1.635816855648044
 20
5.900158460730362
 30
0.0
 40
0.3077278568626208
100
AcDbArc
 50
181.6242200198432
 51
250.0287090955921
  0
ARC
  5
1E8
330
1F
100
AcDbEntity
  8
0
  6
Continuous
 62
     7
370
    25
100
AcDbCircle
 10
0.1141831443519561
 20
5.900158460730362
 30
0.0
 40
0.3077278568626209
100
AcDbArc
 50
289.9712909044111
 51
358.37577998016
  0
ARC
  5
1E9
330
1F
100
AcDbEntity
  8
0
  6
Continuous
 62
     7
370
    25
100
AcDbCircle
 10
1.67393874948835
 20
26.9224597854756
 30
0.0
 40
0.3476206735095157
100
AcDbArc
 50
185.9846196719002
 51
245.6683094422902
  0
ARC
  5
1EA
330
1F
100
AcDbEntity
  8
0
  6
Continuous
 62
     7
370
    25
100
AcDbCircle
 10
0.0760612505116757
 20
26.92245978547561
 30
0.0
 40
0.3476206735095084
100
AcDbArc
 50
294.3316905577112
 51
354.015380328102
  0
SPLINE
  5
255
330
1F
100
AcDbEntity
  8
0
  6
Continuous
 62
     7
370
    25
100
AcDbSpline
210
0.0
220
0.0
230
1.0
 70
    24
 71
     3
 72
    11
 73
     7
 74
     0
 42
0.000000001
 43
0.00000001
 40
0.0
 40
0.0
 40
0.0
 40
0.0
 40
0.125579991049252
 40
0.3428415489901256
 40
0.5601707431934019
 40
1.0
 40
1.0
 40
1.0
 40
1.0
 10
7.75
 20
4.96483151440765
 30
0.0
 10
7.75
 20
4.965659012835404
 30
0.0
 10
7.75
 20
4.96791813740125
 30
0.0
 10
7.75
 20
4.950907595637603
 30
0.0
 10
7.75
 20
4.913297681722884
 30
0.0
 10
7.75
 20
4.867153507403752
 30
0.0
 10
7.75
 20
4.836269695644886
 30
0.0
  0
SPLINE
  5
256
330
1F
100
AcDbEntity
  8
0
  6
Continuous
 62
     7
370
    25
100
AcDbSpline
210
0.0
220
0.0
230
1.0
 70
     8
 71
     3
 72
    23
 73
    19
 74
     0
 42
0.000000001
 43
0.00000001
 40
0.0
 40
0.0
 40
0.0
 40
0.0
 40
0.1250000000000001
 40
0.1250000000000001
 40
0.2500000000000001
 40
0.2500000000000001
 40
0.375
 40
0.375
 40
0.5
 40
0.5
 40
0.5624999999999999
 40
0.5624999999999999
 40
0.625
 40
0.625
 40
0.7499999999999999
 40
0.7499999999999999
 40
0.8749999999999999
 40
1.0
 40
1.0
 40
1.0
 40
1.0
 10
7.75
 20
4.836269695644886
 30
0.0
 10
7.679645664433157
 20
4.854376496964863
 30
0.0
 10
7.609033409807326
 20
4.871473948304146
 30
0.0
 10
7.467046570578436
 20
4.902685520666521
 30
0.0
 10
7.395671950324837
 20
4.916799502173477
 30
0.0
 10
7.251815158852548
 20
4.940693134294508
 30
0.0
 10
7.17932960512847
 20
4.950459547686942
 30
0.0
 10
7.032846037397024
 20
4.96407345648361
 30
0.0
 10
6.958840391700751
 20
4.967891085754339
 30
0.0
 10
6.846475299412982
 20
4.968308468148862
 30
0.0
 10
6.808795921547775
 20
4.967569627368221
 30
0.0
 10
6.732981661267038
 20
4.964309357459723
 30
0.0
 10
6.695201833830784
 20
4.961801969685947
 30
0.0
 10
6.582677654830884
 20
4.951930552926202
 30
0.0
 10
6.508530957825233
 20
4.942210290916552
 30
0.0
 10
6.361511114369623
 20
4.918171219765854
 30
0.0
 10
6.215756429863933
 20
4.889563901964939
 30
0.0
 10
6.071726288093109
 20
4.854729590652883
 30
0.0
 10
6.0
 20
4.836269695644886
 30
0.0
  0
SPLINE
  5
257
330
1F
100
AcDbEntity
  8
0
  6
Continuous
 62
     7
370
    25
100
AcDbSpline
210
0.0
220
0.0
230
1.0
 70
    24
 71
     3
 72
    11
 73
     7
 74
     0
 42
0.000000001
 43
0.00000001
 40
0.0
 40
0.0
 40
0.0
 40
0.0
 40
0.2787361087886346
 40
0.5573678938775447
 40
0.8415344705516247
 40
1.0
 40
1.0
 40
1.0
 40
1.0
 10
6.0
 20
4.836269695644886
 30
0.0
 10
6.0
 20
4.856153755823862
 30
0.0
 10
6.0
 20
4.895914434093553
 30
0.0
 10
6.0
 20
4.940429256085474
 30
0.0
 10
6.0
 20
4.96633980304912
 30
0.0
 10
6.0
 20
4.965229139924686
 30
0.0
 10
6.0
 20
4.96483151440765
 30
0.0
  0
SPLINE
  5
258
330
1F
100
AcDbEntity
  8
0
  6
Continuous
 62
     7
370
    25
100
AcDbSpline
210
0.0
220
0.0
230
1.0
 70
    24
 71
     3
 72
    23
 73
    19
 74
     0
 42
0.000000001
 43
0.00000001
 40
0.0
 40
0.0
 40
0.0
 40
0.0
 40
0.0625009163743325
 40
0.1250018327486644
 40
0.1875027491229963
 40
0.2500036654973282
 40
0.3125045818716607
 40
0.3750054982459926
 40
0.4375064146203251
 40
0.5000073309946571
 40
0.5625082473689893
 40
0.6250091637433213
 40
0.6875100801176534
 40
0.7500109964919859
 40
0.8125119128663179
 40
0.87501282924065
 40
0.9375137456149821
 40
1.0
 40
1.0
 40
1.0
 40
1.0
 10
6.421787363154817
 20
29.17580545035316
 30
0.0
 10
6.423474089942244
 20
29.17580545035315
 30
0.0
 10
6.4268475435171
 20
29.17580545035316
 30
0.0
 10
6.453796764113837
 20
29.17580545035316
 30
0.0
 10
6.495682125687138
 20
29.17580545035315
 30
0.0
 10
6.552479520447936
 20
29.17580545035317
 30
0.0
 10
6.621581419525124
 20
29.17580545035316
 30
0.0
 10
6.700446099894527
 20
29.17580545035317
 30
0.0
 10
6.786012376141882
 20
29.17580545035318
 30
0.0
 10
6.874999999954514
 20
29.17580545035317
 30
0.0
 10
6.963987624040066
 20
29.17580545035319
 30
0.0
 10
7.049553899468657
 20
29.17580545035318
 30
0.0
 10
7.128418582840195
 20
29.1758054503532
 30
0.0
 10
7.197520470727609
 20
29.17580545035319
 30
0.0
 10
7.254317907245367
 20
29.1758054503532
 30
0.0
 10
7.2962031129806
 20
29.1758054503532
 30
0.0
 10
7.32315080780242
 20
29.1758054503532
 30
0.0
 10
7.326524130484338
 20
29.1758054503532
 30
0.0
 10
7.328210593966507
 20
29.1758054503532
 30
0.0
  0
SPLINE
  5
259
330
1F
100
AcDbEntity
  8
0
  6
Continuous
 62
     7
370
    25
100
AcDbSpline
210
0.0
220
0.0
230
1.0
 70
    24
 71
     3
 72
    24
 73
    20
 74
     0
 42
0.000000001
 43
0.00000001
 40
0.0
 40
0.0
 40
0.0
 40
0.0
 40
0.0000146617744459
 40
0.062514661774446
 40
0.1250146617744458
 40
0.1875146617744458
 40
0.2500146617744462
 40
0.312514661774446
 40
0.375014661774446
 40
0.4375146617744461
 40
0.5000146617744459
 40
0.5625146617744456
 40
0.6250146617744456
 40
0.6875146617744458
 40
0.7500146617744459
 40
0.8125146617744459
 40
0.8750146617744461
 40
0.9375146617744461
 40
1.0
 40
1.0
 40
1.0
 40
1.0
 10
7.328210593967946
 20
6.079652498917003
 30
0.0
 10
7.328211275073292
 20
6.079652498917003
 30
0.0
 10
7.331115362190532
 20
6.079652498917003
 30
0.0
 10
7.32102303366345
 20
6.079652498917003
 30
0.0
 10
7.296773813012717
 20
6.079652498917003
 30
0.0
 10
7.254164988634162
 20
6.079652498917003
 30
0.0
 10
7.197561445147567
 20
6.079652498917003
 30
0.0
 10
7.128407603777735
 20
6.079652498917003
 30
0.0
 10
7.049556841303386
 20
6.079652498917003
 30
0.0
 10
6.963986835766948
 20
6.079652498917003
 30
0.0
 10
6.875000211213956
 20
6.079652498917003
 30
0.0
 10
6.786012319377228
 20
6.079652498917003
 30
0.0
 10
6.700446115691995
 20
6.079652498917003
 30
0.0
 10
6.621581413096565
 20
6.079652498917003
 30
0.0
 10
6.552479530359855
 20
6.079652498917003
 30
0.0
 10
6.495682092461854
 20
6.079652498917003
 30
0.0
 10
6.4537968870958
 20
6.079652498917003
 30
0.0
 10
6.426849192176721
 20
6.079652498917003
 30
0.0
 10
6.423475869507748
 20
6.079652498917003
 30
0.0
 10
6.421789406032054
 20
6.079652498917003
 30
0.0
  0
LINE
  5
25A
330
1F
100
AcDbEntity
  8
0
  6
Continuous
 62
     7
370
    25
100
AcDbLine
 10
7.75
 20
4.96818592706141
 30
0.0
 11
7.530712636846521
 21
5.047999999999998
 31
0.0
  0
LINE
  5
25B
330
1F
100
AcDbEntity
  8
0
  6
Continuous
 62
     7
370
    25
100
AcDbLine
 10
6.219287363153479
 20
5.047999999999998
 30
0.0
 11
6.0
 21
4.96818592706141
 31
0.0
  0
LINE
  5
25C
330
1F
100
AcDbEntity
  8
0
  6
Continuous
 62
     7
370
    25
100
AcDbLine
 10
7.719999999997006
 20
18.98371452162827
 30
0.0
 11
7.328000000000035
 21
29.17580545035316
 31
0.0
  0
LINE
  5
25D
330
1F
100
AcDbEntity
  8
0
  6
Continuous
 62
     7
370
    25
100
AcDbLine
 10
6.422
 20
29.17580545035316
 30
0.0
 11
6.030000000003014
 21
18.98371452162827
 31
0.0
  0
LINE
  5
25E
330
1F
100
AcDbEntity
  8
0
  6
Continuous
 62
     7
370
    25
100
AcDbLine
 10
6.030000000034751
 20
16.27174342764458
 30
0.0
 11
6.422
 21
6.079652498917003
 31
0.0
  0
LINE
  5
25F
330
1F
100
AcDbEntity
  8
0
  6
Continuous
 62
     7
370
    25
100
AcDbLine
 10
7.328
 20
6.079652498917001
 30
0.0
 11
7.719999999965264
 21
16.27174342764458
 31
0.0
  0
LINE
  5
260
330
1F
100
AcDbEntity
  8
0
  6
Continuous
 62
     7
370
    25
100
AcDbLine
 10
6.219287313090735
 20
29.76886912286823
 30
0.0
 11
6.219287313090741
 21
29.64380528661168
 31
0.0
  0
LINE
  5
261
330
1F
100
AcDbEntity
  8
0
  6
Continuous
 62
     7
370
    25
100
AcDbLine
 10
7.530712686909217
 20
29.64380528661174
 30
0.0
 11
7.530712686909212
 21
29.76886912286829
 31
0.0
  0
LINE
  5
262
330
1F
100
AcDbEntity
  8
0
  6
Continuous
 62
     7
370
    25
100
AcDbLine
 10
7.530712636846586
 20
5.485872327478432
 30
0.0
 11
7.530712636846586
 21
5.610936163734786
 31
0.0
  0
LINE
  5
263
330
1F
100
AcDbEntity
  8
0
  6
Continuous
 62
     7
370
    25
100
AcDbLine
 10
6.219287363153414
 20
5.610936163734786
 30
0.0
 11
6.219287363153414
 21
5.485872327478432
 31
0.0
  0
LINE
  5
264
330
1F
100
AcDbEntity
  8
0
  6
Continuous
 62
     7
370
    25
100
AcDbLine
 10
6.219287363159169
 20
30.33186928661312
 30
0.0
 11
6.219287363159174
 21
30.20680528661311
 31
0.0
  0
LINE
  5
265
330
1F
100
AcDbEntity
  8
0
  6
Continuous
 62
     7
370
    25
100
AcDbLine
 10
7.530712636840732
 20
30.20680528661318
 30
0.0
 11
7.530712636840727
 21
30.33186928661318
 31
0.0
  0
LINE
  5
266
330
1F
100
AcDbEntity
  8
0
  6
Continuous
 62
     7
370
    25
100
AcDbLine
 10
6.421787363153362
 20
6.079652498917003
 30
0.0
 11
6.484287363153268
 21
6.06054433132582
 31
0.0
  0
LINE
  5
267
330
1F
100
AcDbEntity
  8
0
  6
Continuous
 62
     7
370
    25
100
AcDbLine
 10
7.265712636846732
 20
6.06054433132582
 30
0.0
 11
7.328212636846638
 21
6.079652498917003
 31
0.0
  0
LINE
  5
268
330
1F
100
AcDbEntity
  8
0
  6
Continuous
 62
     7
370
    25
100
AcDbLine
 10
7.328212636845183
 20
29.1758054503532
 30
0.0
 11
7.265712636848139
 21
29.19491361794445
 31
0.0
  0
LINE
  5
269
330
1F
100
AcDbEntity
  8
0
  6
Continuous
 62
     7
370
    25
100
AcDbLine
 10
6.484287363151859
 20
29.19491361794442
 30
0.0
 11
6.421787363154816
 21
29.17580545035316
 31
0.0
  0
LINE
  5
26A
330
1F
100
AcDbEntity
  8
0
  6
Continuous
 62
     7
370
    25
100
AcDbLine
 10
6.421787313090598
 20
29.36330528661097
 30
0.0
 11
6.484287363151859
 21
29.34419728276203
 31
0.0
  0
LINE
  5
26B
330
1F
100
AcDbEntity
  8
0
  6
Continuous
 62
     7
370
    25
100
AcDbLine
 10
7.265712636848125
 20
29.34419728276206
 30
0.0
 11
7.328212686909385
 21
29.36330528661101
 31
0.0
  0
LINE
  5
26C
330
1F
100
AcDbEntity
  8
0
  6
Continuous
 62
     7
370
    25
100
AcDbLine
 10
7.328212636847856
 20
30.61236928660967
 30
0.0
 11
7.249999999998154
 21
30.63628128937241
 31
0.0
  0
LINE
  5
26D
330
1F
100
AcDbEntity
  8
0
  6
Continuous
 62
     7
370
    25
100
AcDbLine
 10
6.500000000001713
 20
30.63628128937237
 30
0.0
 11
6.421787363152013
 21
30.61236928660963
 31
0.0
  0
LINE
  5
26E
330
1F
100
AcDbEntity
  8
0
  6
Continuous
 62
     7
370
    25
100
AcDbLine
 10
7.328212636846708
 20
5.891436163734637
 30
0.0
 11
7.265712636846732
 21
5.910544331325821
 31
0.0
  0
LINE
  5
26F
330
1F
100
AcDbEntity
  8
0
  6
Continuous
 62
     7
370
    25
100
AcDbLine
 10
6.484287363153268
 20
5.910544331325821
 30
0.0
 11
6.421787363153292
 21
5.891436163734637
 31
0.0
  0
LINE
  5
270
330
1F
100
AcDbEntity
  8
0
  6
Continuous
 62
     7
370
    25
100
AcDbLine
 10
6.467499999998783
 20
18.54461771820191
 30
0.0
 11
6.520000000002357
 21
18.52856685743367
 31
0.0
  0
LINE
  5
271
330
1F
100
AcDbEntity
  8
0
  6
Continuous
 62
     7
370
    25
100
AcDbLine
 10
7.229999999997662
 20
18.52856685743367
 30
0.0
 11
7.282500000001235
 21
18.54461771820191
 31
0.0
  0
LINE
  5
272
330
1F
100
AcDbEntity
  8
0
  6
Continuous
 62
     7
370
    25
100
AcDbLine
 10
7.28250000000113
 20
16.71084023106007
 30
0.0
 11
7.230000000000206
 21
16.72689109183683
 31
0.0
  0
LINE
  5
273
330
1F
100
AcDbEntity
  8
0
  6
Continuous
 62
     7
370
    25
100
AcDbLine
 10
6.51999999999981
 20
16.72689109183683
 30
0.0
 11
6.467499999998886
 21
16.71084023106007
 31
0.0
  0
LINE
  5
274
330
1F
100
AcDbEntity
  8
0
  6
Continuous
 62
     7
370
    25
100
AcDbLine
 10
6.484287363151856
 20
29.34419728276203
 30
0.0
 11
6.484287363151862
 21
29.19491361794442
 31
0.0
  0
LINE
  5
275
330
1F
100
AcDbEntity
  8
0
  6
Continuous
 62
     7
370
    25
100
AcDbLine
 10
7.265712636848136
 20
29.19491361794445
 30
0.0
 11
7.265712636848129
 21
29.34419728276206
 31
0.0
  0
LINE
  5
276
330
1F
100
AcDbEntity
  8
0
  6
Continuous
 62
     7
370
    25
100
AcDbLine
 10
7.265712636846732
 20
5.910544331325821
 30
0.0
 11
7.265712636846732
 21
6.06054433132582
 31
0.0
  0
LINE
  5
277
330
1F
100
AcDbEntity
  8
0
  6
Continuous
 62
     7
370
    25
100
AcDbLine
 10
6.484287363153268
 20
6.06054433132582
 30
0.0
 11
6.484287363153268
 21
5.910544331325821
 31
0.0
  0
LINE
  5
278
330
1F
100
AcDbEntity
  8
0
  6
Continuous
 62
     7
370
    25
100
AcDbLine
 10
6.5
 20
0.4999999999999982
 30
0.0
 11
6.5
 21
-0.0000000000000009
 31
0.0
  0
LINE
  5
279
330
1F
100
AcDbEntity
  8
0
  6
Continuous
 62
     7
370
    25
100
AcDbLine
 10
7.25
 20
-0.0000000000000009
 30
0.0
 11
7.25
 21
0.4999999999999982
 31
0.0
  0
LINE
  5
27A
330
1F
100
AcDbEntity
  8
0
  6
Continuous
 62
     7
370
    25
100
AcDbLine
 10
7.249999999998951
 20
30.63628128937237
 30
0.0
 11
7.249999999998951
 21
36.00028128937238
 31
0.0
  0
LINE
  5
27B
330
1F
100
AcDbEntity
  8
0
  6
Continuous
 62
     7
370
    25
100
AcDbLine
 10
6.500000000000919
 20
36.00028128937238
 30
0.0
 11
6.500000000000919
 21
30.63628128937237
 31
0.0
  0
LINE
  5
27C
330
1F
100
AcDbEntity
  8
0
  6
Continuous
 62
     7
370
    25
100
AcDbLine
 10
7.230000000000206
 20
16.72689109183683
 30
0.0
 11
7.230000000000206
 21
16.86091739412877
 31
0.0
  0
LINE
  5
27D
330
1F
100
AcDbEntity
  8
0
  6
Continuous
 62
     7
370
    25
100
AcDbLine
 10
6.51999999999981
 20
16.86091739412877
 30
0.0
 11
6.51999999999981
 21
16.72689109183683
 31
0.0
  0
LINE
  5
27E
330
1F
100
AcDbEntity
  8
0
  6
Continuous
 62
     7
370
    25
100
AcDbLine
 10
7.229999999997661
 20
18.39454055514257
 30
0.0
 11
7.229999999997661
 21
18.52856685743367
 31
0.0
  0
LINE
  5
27F
330
1F
100
AcDbEntity
  8
0
  6
Continuous
 62
     7
370
    25
100
AcDbLine
 10
6.520000000002358
 20
18.52856685743367
 30
0.0
 11
6.520000000002357
 21
18.39454055514257
 31
0.0
  0
LINE
  5
280
330
1F
100
AcDbEntity
  8
0
  6
Continuous
 62
     7
370
    25
100
AcDbLine
 10
6.219287363153479
 20
5.047999999999998
 30
0.0
 11
7.530712636846521
 21
5.047999999999998
 31
0.0
  0
LINE
  5
281
330
1F
100
AcDbEntity
  8
0
  6
Continuous
 62
     7
370
    25
100
AcDbLine
 10
7.75
 20
0.4999999999999982
 30
0.0
 11
6.0
 21
0.4999999999999982
 31
0.0
  0
LINE
  5
282
330
1F
100
AcDbEntity
  8
0
  6
Continuous
 62
     7
370
    25
100
AcDbLine
 10
7.75
 20
0.4999999999999982
 30
0.0
 11
7.75
 21
4.836269695644886
 31
0.0
  0
LINE
  5
283
330
1F
100
AcDbEntity
  8
0
  6
Continuous
 62
     7
370
    25
100
AcDbLine
 10
6.0
 20
0.4999999999999982
 30
0.0
 11
6.0
 21
4.836269695644886
 31
0.0
  0
LINE
  5
284
330
1F
100
AcDbEntity
  8
0
  6
Continuous
 62
     7
370
    25
100
AcDbLine
 10
7.530712636846586
 20
5.485872327478432
 30
0.0
 11
6.219287363153414
 21
5.485872327478432
 31
0.0
  0
LINE
  5
285
330
1F
100
AcDbEntity
  8
0
  6
Continuous
 62
     7
370
    25
100
AcDbLine
 10
7.229999999997661
 20
18.39454055514257
 30
0.0
 11
6.520000000002357
 21
18.39454055514257
 31
0.0
  0
LINE
  5
286
330
1F
100
AcDbEntity
  8
0
  6
Continuous
 62
     7
370
    25
100
AcDbLine
 10
7.230000000000206
 20
16.86091739412877
 30
0.0
 11
6.519999999999808
 21
16.86091739412877
 31
0.0
  0
LINE
  5
287
330
1F
100
AcDbEntity
  8
0
  6
Continuous
 62
     7
370
    25
100
AcDbLine
 10
7.719999999997006
 20
18.98371452162827
 30
0.0
 11
6.030000000003014
 21
18.98371452162827
 31
0.0
  0
LINE
  5
288
330
1F
100
AcDbEntity
  8
0
  6
Continuous
 62
     7
370
    25
100
AcDbLine
 10
7.282500000001235
 20
18.54461771820191
 30
0.0
 11
6.467499999998783
 21
18.54461771820191
 31
0.0
  0
LINE
  5
289
330
1F
100
AcDbEntity
  8
0
  6
Continuous
 62
     7
370
    25
100
AcDbLine
 10
7.28250000000113
 20
16.71084023106007
 30
0.0
 11
6.467499999998886
 21
16.71084023106007
 31
0.0
  0
LINE
  5
28A
330
1F
100
AcDbEntity
  8
0
  6
Continuous
 62
     7
370
    25
100
AcDbLine
 10
7.719999999965264
 20
16.27174342764458
 30
0.0
 11
6.030000000034751
 21
16.27174342764458
 31
0.0
  0
LINE
  5
28B
330
1F
100
AcDbEntity
  8
0
  6
Continuous
 62
     7
370
    25
100
AcDbLine
 10
6.219287363159173
 20
30.20680528661311
 30
0.0
 11
7.530712636840734
 21
30.20680528661318
 31
0.0
  0
LINE
  5
28C
330
1F
100
AcDbEntity
  8
0
  6
Continuous
 62
     7
370
    25
100
AcDbLine
 10
6.219287313090738
 20
29.76886912286823
 30
0.0
 11
7.530712686909208
 21
29.76886912286829
 31
0.0
  0
LINE
  5
28D
330
1F
100
AcDbEntity
  8
0
  6
Continuous
 62
     7
370
    25
100
AcDbLine
 10
6.219287313090739
 20
29.64380528661168
 30
0.0
 11
7.53071268690922
 21
29.64380528661174
 31
0.0
  0
LINE
  5
28E
330
1F
100
AcDbEntity
  8
0
  6
Continuous
 62
     7
370
    25
100
AcDbLine
 10
6.421787313090598
 20
29.36330528661097
 30
0.0
 11
7.328212686909385
 21
29.36330528661101
 31
0.0
  0
LINE
  5
28F
330
1F
100
AcDbEntity
  8
0
  6
Continuous
 62
     7
370
    25
100
AcDbLine
 10
7.530712636846586
 20
5.610936163734786
 30
0.0
 11
6.219287363153414
 21
5.610936163734786
 31
0.0
  0
LINE
  5
290
330
1F
100
AcDbEntity
  8
0
  6
Continuous
 62
     7
370
    25
100
AcDbLine
 10
7.328212636846708
 20
5.891436163734637
 30
0.0
 11
6.421787363153292
 21
5.891436163734637
 31
0.0
  0
LINE
  5
291
330
1F
100
AcDbEntity
  8
0
  6
Continuous
 62
     7
370
    25
100
AcDbLine
 10
6.219287363159172
 20
30.33186928661312
 30
0.0
 11
7.530712636840724
 21
30.33186928661318
 31
0.0
  0
LINE
  5
292
330
1F
100
AcDbEntity
  8
0
  6
Continuous
 62
     7
370
    25
100
AcDbLine
 10
6.421787363152014
 20
30.61236928660963
 30
0.0
 11
7.328212636847856
 21
30.61236928660967
 31
0.0
  0
LINE
  5
293
330
1F
100
AcDbEntity
  8
0
  6
Continuous
 62
     7
370
    25
100
AcDbLine
 10
7.265712636846732
 20
6.06054433132582
 30
0.0
 11
6.484287363153268
 21
6.06054433132582
 31
0.0
  0
LINE
  5
294
330
1F
100
AcDbEntity
  8
0
  6
Continuous
 62
     7
370
    25
100
AcDbLine
 10
6.484287363151859
 20
29.19491361794442
 30
0.0
 11
7.265712636848139
 21
29.19491361794445
 31
0.0
  0
LINE
  5
295
330
1F
100
AcDbEntity
  8
0
  6
Continuous
 62
     7
370
    25
100
AcDbLine
 10
6.484287363151859
 20
29.34419728276203
 30
0.0
 11
7.265712636848125
 21
29.34419728276206
 31
0.0
  0
LINE
  5
296
330
1F
100
AcDbEntity
  8
0
  6
Continuous
 62
     7
370
    25
100
AcDbLine
 10
6.500000000001713
 20
30.63628128937237
 30
0.0
 11
7.249999999998154
 21
30.63628128937241
 31
0.0
  0
LINE
  5
297
330
1F
100
AcDbEntity
  8
0
  6
Continuous
 62
     7
370
    25
100
AcDbLine
 10
7.265712636846732
 20
5.910544331325821
 30
0.0
 11
6.484287363153268
 21
5.910544331325821
 31
0.0
  0
LINE
  5
298
330
1F
100
AcDbEntity
  8
0
  6
Continuous
 62
     7
370
    25
100
AcDbLine
 10
7.229999999997662
 20
18.52856685743367
 30
0.0
 11
6.520000000002357
 21
18.52856685743367
 31
0.0
  0
LINE
  5
299
330
1F
100
AcDbEntity
  8
0
  6
Continuous
 62
     7
370
    25
100
AcDbLine
 10
7.230000000000206
 20
16.72689109183683
 30
0.0
 11
6.51999999999981
 21
16.72689109183683
 31
0.0
  0
LINE
  5
29A
330
1F
100
AcDbEntity
  8
0
  6
Continuous
 62
     7
370
    25
100
AcDbLine
 10
7.25
 20
-0.0000000000000009
 30
0.0
 11
6.5
 21
-0.0000000000000009
 31
0.0
  0
LINE
  5
29B
330
1F
100
AcDbEntity
  8
0
  6
Continuous
 62
     7
370
    25
100
AcDbLine
 10
6.500000000000919
 20
36.00028128937238
 30
0.0
 11
7.249999999998951
 21
36.00028128937238
 31
0.0
  0
ARC
  5
29C
330
1F
100
AcDbEntity
  8
0
  6
Continuous
 62
     7
370
    25
100
AcDbCircle
 10
7.498741834019581
 20
5.26693616373922
 30
0.0
 40
0.2212581660103111
100
AcDbArc
 50
278.3080641087064
 51
81.69193589127804
  0
ARC
  5
29D
330
1F
100
AcDbEntity
  8
0
  6
Continuous
 62
     7
370
    25
100
AcDbCircle
 10
6.251258165980419
 20
5.26693616373922
 30
0.0
 40
0.221258166010311
100
AcDbArc
 50
98.30806410872198
 51
261.6919358912969
  0
ARC
  5
29E
330
1F
100
AcDbEntity
  8
0
  6
Continuous
 62
     7
370
    25
100
AcDbCircle
 10
6.874999999999983
 20
17.62772897463507
 30
0.0
 40
0.8449999999992625
100
AcDbArc
 50
294.8420592144317
 51
65.15794078575931
  0
ARC
  5
29F
330
1F
100
AcDbEntity
  8
0
  6
Continuous
 62
     7
370
    25
100
AcDbCircle
 10
6.874999999999999
 20
17.62772897463508
 30
0.0
 40
0.8449999999992442
100
AcDbArc
 50
114.8420592142394
 51
245.1579407855718
  0
ARC
  5
2A0
330
1F
100
AcDbEntity
  8
0
  6
Continuous
 62
     7
370
    25
100
AcDbCircle
 10
7.869140613635478
 20
18.39761336387495
 30
0.0
 40
0.604778876744426
100
AcDbArc
 50
104.2766179466431
 51
165.9321211127139
  0
ARC
  5
2A1
330
1F
100
AcDbEntity
  8
0
  6
Continuous
 62
     7
370
    25
100
AcDbCircle
 10
5.880859386364539
 20
18.39761336387494
 30
0.0
 40
0.6047788767444284
100
AcDbArc
 50
14.06787888728636
 51
75.7233820533568
  0
ARC
  5
2A2
330
1F
100
AcDbEntity
  8
0
  6
Continuous
 62
     7
370
    25
100
AcDbCircle
 10
7.869140613634353
 20
16.85784458538978
 30
0.0
 40
0.6047788767441031
100
AcDbArc
 50
194.067878887564
 51
255.7233820503578
  0
ARC
  5
2A3
330
1F
100
AcDbEntity
  8
0
  6
Continuous
 62
     7
370
    25
100
AcDbCircle
 10
5.880859386365662
 20
16.85784458538978
 30
0.0
 40
0.6047788767441055
100
AcDbArc
 50
284.2766179496453
 51
345.9321211124392
  0
ARC
  5
2A4
330
1F
100
AcDbEntity
  8
0
  6
Continuous
 62
     7
370
    25
100
AcDbCircle
 10
6.263478368861075
 20
29.98783719968839
 30
0.0
 40
0.2233827837511618
100
AcDbArc
 50
101.4098798920133
 51
258.5901070069465
  0
ARC
  5
2A5
330
1F
100
AcDbEntity
  8
0
  6
Continuous
 62
     7
370
    25
100
AcDbCircle
 10
7.486521631138849
 20
29.98783719968844
 30
0.0
 40
0.2233827837511684
100
AcDbArc
 50
281.4098929930626
 51
78.59012010799171
  0
ARC
  5
2A6
330
1F
100
AcDbEntity
  8
0
  6
Continuous
 62
     7
370
    25
100
AcDbCircle
 10
6.076061200450106
 20
29.32706183630988
 30
0.0
 40
0.3476206735095512
100
AcDbArc
 50
5.984619671725896
 51
65.66830944353555
  0
ARC
  5
2A7
330
1F
100
AcDbEntity
  8
0
  6
Continuous
 62
     7
370
    25
100
AcDbCircle
 10
7.673938799549871
 20
29.32706183630996
 30
0.0
 40
0.3476206735095415
100
AcDbArc
 50
114.3316905564682
 51
174.0153803282793
  0
ARC
  5
2A8
330
1F
100
AcDbEntity
  8
0
  6
Continuous
 62
     7
370
    25
100
AcDbCircle
 10
7.635816855648044
 20
5.900158460730362
 30
0.0
 40
0.3077278568626208
100
AcDbArc
 50
181.6242200198432
 51
250.028709095592
  0
ARC
  5
2A9
330
1F
100
AcDbEntity
  8
0
  6
Continuous
 62
     7
370
    25
100
AcDbCircle
 10
6.114183144351956
 20
5.900158460730362
 30
0.0
 40
0.3077278568626209
100
AcDbArc
 50
289.9712909044111
 51
358.37577998016
  0
ARC
  5
2AA
330
1F
100
AcDbEntity
  8
0
  6
Continuous
 62
     7
370
    25
100
AcDbCircle
 10
6.076061250511669
 20
30.64861273691176
 30
0.0
 40
0.3476206735095139
100
AcDbArc
 50
294.3316905577118
 51
354.0153803281022
  0
ARC
  5
2AB
330
1F
100
AcDbEntity
  8
0
  6
Continuous
 62
     7
370
    25
100
AcDbCircle
 10
7.673938749488203
 20
30.64861273691184
 30
0.0
 40
0.3476206735095222
100
AcDbArc
 50
185.9846196719053
 51
245.6683094422964
  0
SPLINE
  5
315
330
1F
100
AcDbEntity
  8
0
  6
Continuous
 62
     7
370
    25
100
AcDbSpline
210
0.0
220
0.0
230
1.0
 70
    24
 71
     3
 72
    11
 73
     7
 74
     0
 42
0.000000001
 43
0.00000001
 40
0.0
 40
0.0
 40
0.0
 40
0.0
 40
0.125579991049252
 40
0.3428415489901256
 40
0.5601707431934019
 40
1.0
 40
1.0
 40
1.0
 40
1.0
 10
13.75
 20
8.714831514407654
 30
0.0
 10
13.75
 20
8.715659012835406
 30
0.0
 10
13.75
 20
8.717918137401252
 30
0.0
 10
13.75
 20
8.700907595637604
 30
0.0
 10
13.75
 20
8.663297681722884
 30
0.0
 10
13.75
 20
8.617153507403753
 30
0.0
 10
13.75
 20
8.586269695644889
 30
0.0
  0
SPLINE
  5
316
330
1F
100
AcDbEntity
  8
0
  6
Continuous
 62
     7
370
    25
100
AcDbSpline
210
0.0
220
0.0
230
1.0
 70
     8
 71
     3
 72
    23
 73
    19
 74
     0
 42
0.000000001
 43
0.00000001
 40
0.0
 40
0.0
 40
0.0
 40
0.0
 40
0.1250000000000001
 40
0.1250000000000001
 40
0.2500000000000001
 40
0.2500000000000001
 40
0.375
 40
0.375
 40
0.5
 40
0.5
 40
0.5624999999999999
 40
0.5624999999999999
 40
0.625
 40
0.625
 40
0.7499999999999999
 40
0.7499999999999999
 40
0.8749999999999999
 40
1.0
 40
1.0
 40
1.0
 40
1.0
 10
13.75
 20
8.586269695644889
 30
0.0
 10
13.67964566443316
 20
8.604376496964866
 30
0.0
 10
13.60903340980733
 20
8.621473948304148
 30
0.0
 10
13.46704657057844
 20
8.652685520666523
 30
0.0
 10
13.39567195032484
 20
8.666799502173479
 30
0.0
 10
13.25181515885255
 20
8.69069313429451
 30
0.0
 10
13.17932960512847
 20
8.700459547686943
 30
0.0
 10
13.03284603739703
 20
8.71407345648361
 30
0.0
 10
12.95884039170075
 20
8.71789108575434
 30
0.0
 10
12.84647529941298
 20
8.718308468148864
 30
0.0
 10
12.80879592154777
 20
8.717569627368222
 30
0.0
 10
12.73298166126704
 20
8.714309357459726
 30
0.0
 10
12.69520183383078
 20
8.711801969685949
 30
0.0
 10
12.58267765483088
 20
8.701930552926203
 30
0.0
 10
12.50853095782523
 20
8.692210290916552
 30
0.0
 10
12.36151111436962
 20
8.668171219765856
 30
0.0
 10
12.21575642986393
 20
8.63956390196494
 30
0.0
 10
12.07172628809311
 20
8.604729590652884
 30
0.0
 10
12.0
 20
8.586269695644889
 30
0.0
  0
SPLINE
  5
317
330
1F
100
AcDbEntity
  8
0
  6
Continuous
 62
     7
370
    25
100
AcDbSpline
210
0.0
220
0.0
230
1.0
 70
    24
 71
     3
 72
    11
 73
     7
 74
     0
 42
0.000000001
 43
0.00000001
 40
0.0
 40
0.0
 40
0.0
 40
0.0
 40
0.2787361087886346
 40
0.5573678938775447
 40
0.8415344705516247
 40
1.0
 40
1.0
 40
1.0
 40
1.0
 10
12.0
 20
8.586269695644889
 30
0.0
 10
12.0
 20
8.606153755823865
 30
0.0
 10
12.0
 20
8.645914434093555
 30
0.0
 10
12.0
 20
8.690429256085476
 30
0.0
 10
12.0
 20
8.716339803049122
 30
0.0
 10
12.0
 20
8.715229139924688
 30
0.0
 10
12.0
 20
8.714831514407654
 30
0.0
  0
SPLINE
  5
318
330
1F
100
AcDbEntity
  8
0
  6
Continuous
 62
     7
370
    25
100
AcDbSpline
210
0.0
220
0.0
230
1.0
 70
    24
 71
     3
 72
    23
 73
    19
 74
     0
 42
0.000000001
 43
0.00000001
 40
0.0
 40
0.0
 40
0.0
 40
0.0
 40
0.0625009163743325
 40
0.1250018327486644
 40
0.1875027491229963
 40
0.2500036654973282
 40
0.3125045818716607
 40
0.3750054982459926
 40
0.4375064146203251
 40
0.5000073309946571
 40
0.5625082473689893
 40
0.6250091637433213
 40
0.6875100801176534
 40
0.7500109964919859
 40
0.8125119128663179
 40
0.87501282924065
 40
0.9375137456149821
 40
1.0
 40
1.0
 40
1.0
 40
1.0
 10
12.42178736315482
 20
32.92580545035317
 30
0.0
 10
12.42347408994224
 20
32.92580545035317
 30
0.0
 10
12.4268475435171
 20
32.92580545035317
 30
0.0
 10
12.45379676411384
 20
32.92580545035317
 30
0.0
 10
12.49568212568714
 20
32.92580545035317
 30
0.0
 10
12.55247952044794
 20
32.92580545035317
 30
0.0
 10
12.62158141952512
 20
32.92580545035317
 30
0.0
 10
12.70044609989453
 20
32.92580545035317
 30
0.0
 10
12.78601237614188
 20
32.92580545035319
 30
0.0
 10
12.87499999995451
 20
32.92580545035317
 30
0.0
 10
12.96398762404007
 20
32.9258054503532
 30
0.0
 10
13.04955389946866
 20
32.92580545035319
 30
0.0
 10
13.1284185828402
 20
32.9258054503532
 30
0.0
 10
13.19752047072761
 20
32.9258054503532
 30
0.0
 10
13.25431790724537
 20
32.9258054503532
 30
0.0
 10
13.2962031129806
 20
32.9258054503532
 30
0.0
 10
13.32315080780242
 20
32.9258054503532
 30
0.0
 10
13.32652413048434
 20
32.92580545035321
 30
0.0
 10
13.32821059396651
 20
32.92580545035321
 30
0.0
  0
SPLINE
  5
319
330
1F
100
AcDbEntity
  8
0
  6
Continuous
 62
     7
370
    25
100
AcDbSpline
210
0.0
220
0.0
230
1.0
 70
    24
 71
     3
 72
    24
 73
    20
 74
     0
 42
0.000000001
 43
0.00000001
 40
0.0
 40
0.0
 40
0.0
 40
0.0
 40
0.0000146617744459
 40
0.062514661774446
 40
0.1250146617744458
 40
0.1875146617744458
 40
0.2500146617744462
 40
0.312514661774446
 40
0.375014661774446
 40
0.4375146617744461
 40
0.5000146617744459
 40
0.5625146617744456
 40
0.6250146617744456
 40
0.6875146617744458
 40
0.7500146617744459
 40
0.8125146617744459
 40
0.8750146617744461
 40
0.9375146617744461
 40
1.0
 40
1.0
 40
1.0
 40
1.0
 10
13.32821059396795
 20
9.829652498917005
 30
0.0
 10
13.32821127507329
 20
9.829652498917005
 30
0.0
 10
13.33111536219053
 20
9.829652498917005
 30
0.0
 10
13.32102303366345
 20
9.829652498917005
 30
0.0
 10
13.29677381301272
 20
9.829652498917005
 30
0.0
 10
13.25416498863416
 20
9.829652498917005
 30
0.0
 10
13.19756144514757
 20
9.829652498917005
 30
0.0
 10
13.12840760377773
 20
9.829652498917005
 30
0.0
 10
13.04955684130339
 20
9.829652498917005
 30
0.0
 10
12.96398683576695
 20
9.829652498917005
 30
0.0
 10
12.87500021121396
 20
9.829652498917005
 30
0.0
 10
12.78601231937723
 20
9.829652498917005
 30
0.0
 10
12.700446115692
 20
9.829652498917005
 30
0.0
 10
12.62158141309657
 20
9.829652498917005
 30
0.0
 10
12.55247953035985
 20
9.829652498917005
 30
0.0
 10
12.49568209246185
 20
9.829652498917005
 30
0.0
 10
12.4537968870958
 20
9.829652498917005
 30
0.0
 10
12.42684919217672
 20
9.829652498917005
 30
0.0
 10
12.42347586950775
 20
9.829652498917005
 30
0.0
 10
12.42178940603205
 20
9.829652498917005
 30
0.0
  0
LINE
  5
31A
330
1F
100
AcDbEntity
  8
0
  6
Continuous
 62
     7
370
    25
100
AcDbLine
 10
13.75
 20
8.718185927061413
 30
0.0
 11
13.53071263684652
 21
8.798
 31
0.0
  0
LINE
  5
31B
330
1F
100
AcDbEntity
  8
0
  6
Continuous
 62
     7
370
    25
100
AcDbLine
 10
12.21928736315348
 20
8.798
 30
0.0
 11
12.0
 21
8.718185927061413
 31
0.0
  0
LINE
  5
31C
330
1F
100
AcDbEntity
  8
0
  6
Continuous
 62
     7
370
    25
100
AcDbLine
 10
13.71999999999701
 20
22.73371452162827
 30
0.0
 11
13.32800000000003
 21
32.92580545035317
 31
0.0
  0
LINE
  5
31D
330
1F
100
AcDbEntity
  8
0
  6
Continuous
 62
     7
370
    25
100
AcDbLine
 10
12.422
 20
32.92580545035317
 30
0.0
 11
12.03000000000301
 21
22.73371452162827
 31
0.0
  0
LINE
  5
31E
330
1F
100
AcDbEntity
  8
0
  6
Continuous
 62
     7
370
    25
100
AcDbLine
 10
12.03000000003475
 20
20.02174342764458
 30
0.0
 11
12.422
 21
9.829652498917005
 31
0.0
  0
LINE
  5
31F
330
1F
100
AcDbEntity
  8
0
  6
Continuous
 62
     7
370
    25
100
AcDbLine
 10
13.328
 20
9.829652498917003
 30
0.0
 11
13.71999999996526
 21
20.02174342764458
 31
0.0
  0
LINE
  5
320
330
1F
100
AcDbEntity
  8
0
  6
Continuous
 62
     7
370
    25
100
AcDbLine
 10
12.21928731309074
 20
33.51886912286823
 30
0.0
 11
12.21928731309074
 21
33.39380528661168
 31
0.0
  0
LINE
  5
321
330
1F
100
AcDbEntity
  8
0
  6
Continuous
 62
     7
370
    25
100
AcDbLine
 10
13.53071268690922
 20
33.39380528661174
 30
0.0
 11
13.53071268690921
 21
33.5188691228683
 31
0.0
  0
LINE
  5
322
330
1F
100
AcDbEntity
  8
0
  6
Continuous
 62
     7
370
    25
100
AcDbLine
 10
13.53071263684659
 20
9.235872327478434
 30
0.0
 11
13.53071263684659
 21
9.360936163734788
 31
0.0
  0
LINE
  5
323
330
1F
100
AcDbEntity
  8
0
  6
Continuous
 62
     7
370
    25
100
AcDbLine
 10
12.21928736315341
 20
9.360936163734788
 30
0.0
 11
12.21928736315341
 21
9.235872327478434
 31
0.0
  0
LINE
  5
324
330
1F
100
AcDbEntity
  8
0
  6
Continuous
 62
     7
370
    25
100
AcDbLine
 10
12.21928736315917
 20
34.08186928661312
 30
0.0
 11
12.21928736315918
 21
33.95680528661312
 31
0.0
  0
LINE
  5
325
330
1F
100
AcDbEntity
  8
0
  6
Continuous
 62
     7
370
    25
100
AcDbLine
 10
13.53071263684073
 20
33.95680528661318
 30
0.0
 11
13.53071263684073
 21
34.08186928661318
 31
0.0
  0
LINE
  5
326
330
1F
100
AcDbEntity
  8
0
  6
Continuous
 62
     7
370
    25
100
AcDbLine
 10
12.42178736315336
 20
9.829652498917005
 30
0.0
 11
12.48428736315327
 21
9.810544331325822
 31
0.0
  0
LINE
  5
327
330
1F
100
AcDbEntity
  8
0
  6
Continuous
 62
     7
370
    25
100
AcDbLine
 10
13.26571263684673
 20
9.810544331325822
 30
0.0
 11
13.32821263684664
 21
9.829652498917005
 31
0.0
  0
LINE
  5
328
330
1F
100
AcDbEntity
  8
0
  6
Continuous
 62
     7
370
    25
100
AcDbLine
 10
13.32821263684518
 20
32.92580545035321
 30
0.0
 11
13.26571263684814
 21
32.94491361794446
 31
0.0
  0
LINE
  5
329
330
1F
100
AcDbEntity
  8
0
  6
Continuous
 62
     7
370
    25
100
AcDbLine
 10
12.48428736315186
 20
32.94491361794442
 30
0.0
 11
12.42178736315482
 21
32.92580545035317
 31
0.0
  0
LINE
  5
32A
330
1F
100
AcDbEntity
  8
0
  6
Continuous
 62
     7
370
    25
100
AcDbLine
 10
12.4217873130906
 20
33.11330528661097
 30
0.0
 11
12.48428736315186
 21
33.09419728276204
 31
0.0
  0
LINE
  5
32B
330
1F
100
AcDbEntity
  8
0
  6
Continuous
 62
     7
370
    25
100
AcDbLine
 10
13.26571263684813
 20
33.09419728276207
 30
0.0
 11
13.32821268690939
 21
33.11330528661102
 31
0.0
  0
LINE
  5
32C
330
1F
100
AcDbEntity
  8
0
  6
Continuous
 62
     7
370
    25
100
AcDbLine
 10
13.32821263684786
 20
34.36236928660968
 30
0.0
 11
13.24999999999815
 21
34.38628128937242
 31
0.0
  0
LINE
  5
32D
330
1F
100
AcDbEntity
  8
0
  6
Continuous
 62
     7
370
    25
100
AcDbLine
 10
12.50000000000171
 20
34.38628128937238
 30
0.0
 11
12.42178736315201
 21
34.36236928660963
 31
0.0
  0
LINE
  5
32E
330
1F
100
AcDbEntity
  8
0
  6
Continuous
 62
     7
370
    25
100
AcDbLine
 10
13.32821263684671
 20
9.641436163734639
 30
0.0
 11
13.26571263684673
 21
9.660544331325822
 31
0.0
  0
LINE
  5
32F
330
1F
100
AcDbEntity
  8
0
  6
Continuous
 62
     7
370
    25
100
AcDbLine
 10
12.48428736315327
 20
9.660544331325822
 30
0.0
 11
12.42178736315329
 21
9.641436163734639
 31
0.0
  0
LINE
  5
330
330
1F
100
AcDbEntity
  8
0
  6
Continuous
 62
     7
370
    25
100
AcDbLine
 10
12.46749999999878
 20
22.29461771820191
 30
0.0
 11
12.52000000000236
 21
22.27856685743368
 31
0.0
  0
LINE
  5
331
330
1F
100
AcDbEntity
  8
0
  6
Continuous
 62
     7
370
    25
100
AcDbLine
 10
13.22999999999766
 20
22.27856685743368
 30
0.0
 11
13.28250000000124
 21
22.29461771820191
 31
0.0
  0
LINE
  5
332
330
1F
100
AcDbEntity
  8
0
  6
Continuous
 62
     7
370
    25
100
AcDbLine
 10
13.28250000000113
 20
20.46084023106007
 30
0.0
 11
13.23000000000021
 21
20.47689109183683
 31
0.0
  0
LINE
  5
333
330
1F
100
AcDbEntity
  8
0
  6
Continuous
 62
     7
370
    25
100
AcDbLine
 10
12.51999999999981
 20
20.47689109183683
 30
0.0
 11
12.46749999999889
 21
20.46084023106007
 31
0.0
  0
LINE
  5
334
330
1F
100
AcDbEntity
  8
0
  6
Continuous
 62
     7
370
    25
100
AcDbLine
 10
12.48428736315186
 20
33.09419728276204
 30
0.0
 11
12.48428736315186
 21
32.94491361794442
 31
0.0
  0
LINE
  5
335
330
1F
100
AcDbEntity
  8
0
  6
Continuous
 62
     7
370
    25
100
AcDbLine
 10
13.26571263684814
 20
32.94491361794446
 30
0.0
 11
13.26571263684813
 21
33.09419728276207
 31
0.0
  0
LINE
  5
336
330
1F
100
AcDbEntity
  8
0
  6
Continuous
 62
     7
370
    25
100
AcDbLine
 10
13.26571263684673
 20
9.660544331325822
 30
0.0
 11
13.26571263684673
 21
9.810544331325822
 31
0.0
  0
LINE
  5
337
330
1F
100
AcDbEntity
  8
0
  6
Continuous
 62
     7
370
    25
100
AcDbLine
 10
12.48428736315327
 20
9.810544331325822
 30
0.0
 11
12.48428736315327
 21
9.660544331325822
 31
0.0
  0
LINE
  5
338
330
1F
100
AcDbEntity
  8
0
  6
Continuous
 62
     7
370
    25
100
AcDbLine
 10
12.5
 20
0.5
 30
0.0
 11
12.5
 21
0.0
 31
0.0
  0
LINE
  5
339
330
1F
100
AcDbEntity
  8
0
  6
Continuous
 62
     7
370
    25
100
AcDbLine
 10
13.25
 20
0.0
 30
0.0
 11
13.25
 21
0.5
 31
0.0
  0
LINE
  5
33A
330
1F
100
AcDbEntity
  8
0
  6
Continuous
 62
     7
370
    25
100
AcDbLine
 10
13.24999999999895
 20
34.38628128937238
 30
0.0
 11
13.24999999999895
 21
39.00028128937239
 31
0.0
  0
LINE
  5
33B
330
1F
100
AcDbEntity
  8
0
  6
Continuous
 62
     7
370
    25
100
AcDbLine
 10
12.50000000000092
 20
39.00028128937239
 30
0.0
 11
12.50000000000092
 21
34.38628128937238
 31
0.0
  0
LINE
  5
33C
330
1F
100
AcDbEntity
  8
0
  6
Continuous
 62
     7
370
    25
100
AcDbLine
 10
13.23000000000021
 20
20.47689109183683
 30
0.0
 11
13.23000000000021
 21
20.61091739412877
 31
0.0
  0
LINE
  5
33D
330
1F
100
AcDbEntity
  8
0
  6
Continuous
 62
     7
370
    25
100
AcDbLine
 10
12.51999999999981
 20
20.61091739412877
 30
0.0
 11
12.51999999999981
 21
20.47689109183683
 31
0.0
  0
LINE
  5
33E
330
1F
100
AcDbEntity
  8
0
  6
Continuous
 62
     7
370
    25
100
AcDbLine
 10
13.22999999999766
 20
22.14454055514257
 30
0.0
 11
13.22999999999766
 21
22.27856685743368
 31
0.0
  0
LINE
  5
33F
330
1F
100
AcDbEntity
  8
0
  6
Continuous
 62
     7
370
    25
100
AcDbLine
 10
12.52000000000236
 20
22.27856685743368
 30
0.0
 11
12.52000000000236
 21
22.14454055514257
 31
0.0
  0
LINE
  5
340
330
1F
100
AcDbEntity
  8
0
  6
Continuous
 62
     7
370
    25
100
AcDbLine
 10
12.21928736315348
 20
8.798
 30
0.0
 11
13.53071263684652
 21
8.798
 31
0.0
  0
LINE
  5
341
330
1F
100
AcDbEntity
  8
0
  6
Continuous
 62
     7
370
    25
100
AcDbLine
 10
13.75
 20
0.5
 30
0.0
 11
12.0
 21
0.5
 31
0.0
  0
LINE
  5
342
330
1F
100
AcDbEntity
  8
0
  6
Continuous
 62
     7
370
    25
100
AcDbLine
 10
13.75
 20
0.5
 30
0.0
 11
13.75
 21
8.586269695644889
 31
0.0
  0
LINE
  5
343
330
1F
100
AcDbEntity
  8
0
  6
Continuous
 62
     7
370
    25
100
AcDbLine
 10
12.0
 20
0.5
 30
0.0
 11
12.0
 21
8.586269695644889
 31
0.0
  0
LINE
  5
344
330
1F
100
AcDbEntity
  8
0
  6
Continuous
 62
     7
370
    25
100
AcDbLine
 10
13.53071263684659
 20
9.235872327478434
 30
0.0
 11
12.21928736315341
 21
9.235872327478434
 31
0.0
  0
LINE
  5
345
330
1F
100
AcDbEntity
  8
0
  6
Continuous
 62
     7
370
    25
100
AcDbLine
 10
13.22999999999766
 20
22.14454055514257
 30
0.0
 11
12.52000000000236
 21
22.14454055514257
 31
0.0
  0
LINE
  5
346
330
1F
100
AcDbEntity
  8
0
  6
Continuous
 62
     7
370
    25
100
AcDbLine
 10
13.23000000000021
 20
20.61091739412877
 30
0.0
 11
12.51999999999981
 21
20.61091739412877
 31
0.0
  0
LINE
  5
347
330
1F
100
AcDbEntity
  8
0
  6
Continuous
 62
     7
370
    25
100
AcDbLine
 10
13.71999999999701
 20
22.73371452162827
 30
0.0
 11
12.03000000000301
 21
22.73371452162827
 31
0.0
  0
LINE
  5
348
330
1F
100
AcDbEntity
  8
0
  6
Continuous
 62
     7
370
    25
100
AcDbLine
 10
13.28250000000124
 20
22.29461771820191
 30
0.0
 11
12.46749999999878
 21
22.29461771820191
 31
0.0
  0
LINE
  5
349
330
1F
100
AcDbEntity
  8
0
  6
Continuous
 62
     7
370
    25
100
AcDbLine
 10
13.28250000000113
 20
20.46084023106007
 30
0.0
 11
12.46749999999889
 21
20.46084023106007
 31
0.0
  0
LINE
  5
34A
330
1F
100
AcDbEntity
  8
0
  6
Continuous
 62
     7
370
    25
100
AcDbLine
 10
13.71999999996526
 20
20.02174342764458
 30
0.0
 11
12.03000000003475
 21
20.02174342764458
 31
0.0
  0
LINE
  5
34B
330
1F
100
AcDbEntity
  8
0
  6
Continuous
 62
     7
370
    25
100
AcDbLine
 10
12.21928736315917
 20
33.95680528661312
 30
0.0
 11
13.53071263684073
 21
33.95680528661318
 31
0.0
  0
LINE
  5
34C
330
1F
100
AcDbEntity
  8
0
  6
Continuous
 62
     7
370
    25
100
AcDbLine
 10
12.21928731309074
 20
33.51886912286823
 30
0.0
 11
13.53071268690921
 21
33.5188691228683
 31
0.0
  0
LINE
  5
34D
330
1F
100
AcDbEntity
  8
0
  6
Continuous
 62
     7
370
    25
100
AcDbLine
 10
12.21928731309074
 20
33.39380528661168
 30
0.0
 11
13.53071268690922
 21
33.39380528661174
 31
0.0
  0
LINE
  5
34E
330
1F
100
AcDbEntity
  8
0
  6
Continuous
 62
     7
370
    25
100
AcDbLine
 10
12.4217873130906
 20
33.11330528661097
 30
0.0
 11
13.32821268690939
 21
33.11330528661102
 31
0.0
  0
LINE
  5
34F
330
1F
100
AcDbEntity
  8
0
  6
Continuous
 62
     7
370
    25
100
AcDbLine
 10
13.53071263684659
 20
9.360936163734788
 30
0.0
 11
12.21928736315341
 21
9.360936163734788
 31
0.0
  0
LINE
  5
350
330
1F
100
AcDbEntity
  8
0
  6
Continuous
 62
     7
370
    25
100
AcDbLine
 10
13.32821263684671
 20
9.641436163734639
 30
0.0
 11
12.42178736315329
 21
9.641436163734639
 31
0.0
  0
LINE
  5
351
330
1F
100
AcDbEntity
  8
0
  6
Continuous
 62
     7
370
    25
100
AcDbLine
 10
12.21928736315917
 20
34.08186928661312
 30
0.0
 11
13.53071263684072
 21
34.08186928661318
 31
0.0
  0
LINE
  5
352
330
1F
100
AcDbEntity
  8
0
  6
Continuous
 62
     7
370
    25
100
AcDbLine
 10
12.42178736315201
 20
34.36236928660963
 30
0.0
 11
13.32821263684786
 21
34.36236928660968
 31
0.0
  0
LINE
  5
353
330
1F
100
AcDbEntity
  8
0
  6
Continuous
 62
     7
370
    25
100
AcDbLine
 10
13.26571263684673
 20
9.810544331325822
 30
0.0
 11
12.48428736315327
 21
9.810544331325822
 31
0.0
  0
LINE
  5
354
330
1F
100
AcDbEntity
  8
0
  6
Continuous
 62
     7
370
    25
100
AcDbLine
 10
12.48428736315186
 20
32.94491361794442
 30
0.0
 11
13.26571263684814
 21
32.94491361794446
 31
0.0
  0
LINE
  5
355
330
1F
100
AcDbEntity
  8
0
  6
Continuous
 62
     7
370
    25
100
AcDbLine
 10
12.48428736315186
 20
33.09419728276204
 30
0.0
 11
13.26571263684813
 21
33.09419728276207
 31
0.0
  0
LINE
  5
356
330
1F
100
AcDbEntity
  8
0
  6
Continuous
 62
     7
370
    25
100
AcDbLine
 10
12.50000000000171
 20
34.38628128937238
 30
0.0
 11
13.24999999999815
 21
34.38628128937242
 31
0.0
  0
LINE
  5
357
330
1F
100
AcDbEntity
  8
0
  6
Continuous
 62
     7
370
    25
100
AcDbLine
 10
13.26571263684673
 20
9.660544331325822
 30
0.0
 11
12.48428736315327
 21
9.660544331325822
 31
0.0
  0
LINE
  5
358
330
1F
100
AcDbEntity
  8
0
  6
Continuous
 62
     7
370
    25
100
AcDbLine
 10
13.22999999999766
 20
22.27856685743368
 30
0.0
 11
12.52000000000236
 21
22.27856685743368
 31
0.0
  0
LINE
  5
359
330
1F
100
AcDbEntity
  8
0
  6
Continuous
 62
     7
370
    25
100
AcDbLine
 10
13.23000000000021
 20
20.47689109183683
 30
0.0
 11
12.51999999999981
 21
20.47689109183683
 31
0.0
  0
LINE
  5
35A
330
1F
100
AcDbEntity
  8
0
  6
Continuous
 62
     7
370
    25
100
AcDbLine
 10
13.25
 20
0.0
 30
0.0
 11
12.5
 21
0.0
 31
0.0
  0
LINE
  5
35B
330
1F
100
AcDbEntity
  8
0
  6
Continuous
 62
     7
370
    25
100
AcDbLine
 10
12.50000000000092
 20
39.00028128937239
 30
0.0
 11
13.24999999999895
 21
39.00028128937239
 31
0.0
  0
ARC
  5
35C
330
1F
100
AcDbEntity
  8
0
  6
Continuous
 62
     7
370
    25
100
AcDbCircle
 10
13.49874183401958
 20
9.01693616373922
 30
0.0
 40
0.221258166010311
100
AcDbArc
 50
278.3080641087064
 51
81.69193589127825
  0
ARC
  5
35D
330
1F
100
AcDbEntity
  8
0
  6
Continuous
 62
     7
370
    25
100
AcDbCircle
 10
12.25125816598042
 20
9.01693616373922
 30
0.0
 40
0.2212581660103111
100
AcDbArc
 50
98.3080641087222
 51
261.6919358912964
  0
ARC
  5
35E
330
1F
100
AcDbEntity
  8
0
  6
Continuous
 62
     7
370
    25
100
AcDbCircle
 10
12.87499999999998
 20
21.37772897463507
 30
0.0
 40
0.8449999999992626
100
AcDbArc
 50
294.842059214432
 51
65.15794078575915
  0
ARC
  5
35F
330
1F
100
AcDbEntity
  8
0
  6
Continuous
 62
     7
370
    25
100
AcDbCircle
 10
12.875
 20
21.37772897463508
 30
0.0
 40
0.8449999999992442
100
AcDbArc
 50
114.8420592142395
 51
245.1579407855718
  0
ARC
  5
360
330
1F
100
AcDbEntity
  8
0
  6
Continuous
 62
     7
370
    25
100
AcDbCircle
 10
13.86914061363548
 20
22.14761336387495
 30
0.0
 40
0.604778876744429
100
AcDbArc
 50
104.2766179466435
 51
165.9321211127144
  0
ARC
  5
361
330
1F
100
AcDbEntity
  8
0
  6
Continuous
 62
     7
370
    25
100
AcDbCircle
 10
11.88085938636454
 20
22.14761336387495
 30
0.0
 40
0.6047788767444249
100
AcDbArc
 50
14.0678788872854
 51
75.72338205335656
  0
ARC
  5
362
330
1F
100
AcDbEntity
  8
0
  6
Continuous
 62
     7
370
    25
100
AcDbCircle
 10
13.86914061363435
 20
20.60784458538978
 30
0.0
 40
0.6047788767441031
100
AcDbArc
 50
194.0678788875636
 51
255.7233820503577
  0
ARC
  5
363
330
1F
100
AcDbEntity
  8
0
  6
Continuous
 62
     7
370
    25
100
AcDbCircle
 10
11.88085938636566
 20
20.60784458538978
 30
0.0
 40
0.6047788767441055
100
AcDbArc
 50
284.2766179496452
 51
345.9321211124392
  0
ARC
  5
364
330
1F
100
AcDbEntity
  8
0
  6
Continuous
 62
     7
370
    25
100
AcDbCircle
 10
12.26347836886107
 20
33.73783719968839
 30
0.0
 40
0.2233827837511655
100
AcDbArc
 50
101.4098798920131
 51
258.5901070069464
  0
ARC
  5
365
330
1F
100
AcDbEntity
  8
0
  6
Continuous
 62
     7
370
    25
100
AcDbCircle
 10
13.48652163113885
 20
33.73783719968845
 30
0.0
 40
0.2233827837511643
100
AcDbArc
 50
281.4098929930628
 51
78.59012010799088
  0
ARC
  5
366
330
1F
100
AcDbEntity
  8
0
  6
Continuous
 62
     7
370
    25
100
AcDbCircle
 10
12.07606120045011
 20
33.07706183630989
 30
0.0
 40
0.3476206735095448
100
AcDbArc
 50
5.984619671725405
 51
65.66830944353626
  0
ARC
  5
367
330
1F
100
AcDbEntity
  8
0
  6
Continuous
 62
     7
370
    25
100
AcDbCircle
 10
13.67393879954987
 20
33.07706183630996
 30
0.0
 40
0.3476206735095408
100
AcDbArc
 50
114.3316905564679
 51
174.0153803282781
  0
ARC
  5
368
330
1F
100
AcDbEntity
  8
0
  6
Continuous
 62
     7
370
    25
100
AcDbCircle
 10
13.63581685564805
 20
9.650158460730363
 30
0.0
 40
0.3077278568626208
100
AcDbArc
 50
181.6242200198433
 51
250.0287090955921
  0
ARC
  5
369
330
1F
100
AcDbEntity
  8
0
  6
Continuous
 62
     7
370
    25
100
AcDbCircle
 10
12.11418314435196
 20
9.650158460730363
 30
0.0
 40
0.3077278568626209
100
AcDbArc
 50
289.9712909044112
 51
358.37577998016
  0
ARC
  5
36A
330
1F
100
AcDbEntity
  8
0
  6
Continuous
 62
     7
370
    25
100
AcDbCircle
 10
12.07606125051166
 20
34.39861273691177
 30
0.0
 40
0.3476206735095217
100
AcDbArc
 50
294.3316905577121
 51
354.0153803281011
  0
ARC
  5
36B
330
1F
100
AcDbEntity
  8
0
  6
Continuous
 62
     7
370
    25
100
AcDbCircle
 10
13.67393874948819
 20
34.39861273691183
 30
0.0
 40
0.347620673509506
100
AcDbArc
 50
185.9846196719039
 51
245.6683094422974
  0
SPLINE
  5
3D5
330
1F
100
AcDbEntity
  8
0
  6
Continuous
 62
     7
370
    25
100
AcDbSpline
210
0.0
220
0.0
230
1.0
 70
    24
 71
     3
 72
    11
 73
     7
 74
     0
 42
0.000000001
 43
0.00000001
 40
0.0
 40
0.0
 40
0.0
 40
0.0
 40
0.125579991049252
 40
0.3428415489901256
 40
0.5601707431934019
 40
1.0
 40
1.0
 40
1.0
 40
1.0
 10
19.75
 20
8.714831514407656
 30
0.0
 10
19.75
 20
8.715659012835408
 30
0.0
 10
19.75
 20
8.717918137401254
 30
0.0
 10
19.75
 20
8.700907595637606
 30
0.0
 10
19.75
 20
8.663297681722886
 30
0.0
 10
19.75
 20
8.617153507403755
 30
0.0
 10
19.75
 20
8.58626969564489
 30
0.0
  0
SPLINE
  5
3D6
330
1F
100
AcDbEntity
  8
0
  6
Continuous
 62
     7
370
    25
100
AcDbSpline
210
0.0
220
0.0
230
1.0
 70
     8
 71
     3
 72
    23
 73
    19
 74
     0
 42
0.000000001
 43
0.00000001
 40
0.0
 40
0.0
 40
0.0
 40
0.0
 40
0.1250000000000001
 40
0.1250000000000001
 40
0.2500000000000001
 40
0.2500000000000001
 40
0.375
 40
0.375
 40
0.5
 40
0.5
 40
0.5624999999999999
 40
0.5624999999999999
 40
0.625
 40
0.625
 40
0.7499999999999999
 40
0.7499999999999999
 40
0.8749999999999999
 40
1.0
 40
1.0
 40
1.0
 40
1.0
 10
19.75
 20
8.58626969564489
 30
0.0
 10
19.67964566443316
 20
8.604376496964868
 30
0.0
 10
19.60903340980733
 20
8.62147394830415
 30
0.0
 10
19.46704657057844
 20
8.652685520666525
 30
0.0
 10
19.39567195032484
 20
8.66679950217348
 30
0.0
 10
19.25181515885255
 20
8.690693134294511
 30
0.0
 10
19.17932960512847
 20
8.700459547686945
 30
0.0
 10
19.03284603739703
 20
8.714073456483614
 30
0.0
 10
18.95884039170075
 20
8.717891085754342
 30
0.0
 10
18.84647529941298
 20
8.718308468148866
 30
0.0
 10
18.80879592154778
 20
8.717569627368224
 30
0.0
 10
18.73298166126704
 20
8.714309357459726
 30
0.0
 10
18.69520183383078
 20
8.71180196968595
 30
0.0
 10
18.58267765483088
 20
8.701930552926205
 30
0.0
 10
18.50853095782523
 20
8.692210290916554
 30
0.0
 10
18.36151111436962
 20
8.668171219765858
 30
0.0
 10
18.21575642986393
 20
8.639563901964943
 30
0.0
 10
18.07172628809311
 20
8.604729590652887
 30
0.0
 10
18.0
 20
8.58626969564489
 30
0.0
  0
SPLINE
  5
3D7
330
1F
100
AcDbEntity
  8
0
  6
Continuous
 62
     7
370
    25
100
AcDbSpline
210
0.0
220
0.0
230
1.0
 70
    24
 71
     3
 72
    11
 73
     7
 74
     0
 42
0.000000001
 43
0.00000001
 40
0.0
 40
0.0
 40
0.0
 40
0.0
 40
0.2787361087886346
 40
0.5573678938775447
 40
0.8415344705516247
 40
1.0
 40
1.0
 40
1.0
 40
1.0
 10
18.0
 20
8.58626969564489
 30
0.0
 10
18.0
 20
8.606153755823865
 30
0.0
 10
18.0
 20
8.645914434093557
 30
0.0
 10
18.0
 20
8.690429256085476
 30
0.0
 10
18.0
 20
8.716339803049124
 30
0.0
 10
18.0
 20
8.71522913992469
 30
0.0
 10
18.0
 20
8.714831514407656
 30
0.0
  0
SPLINE
  5
3D8
330
1F
100
AcDbEntity
  8
0
  6
Continuous
 62
     7
370
    25
100
AcDbSpline
210
0.0
220
0.0
230
1.0
 70
    24
 71
     3
 72
    23
 73
    19
 74
     0
 42
0.000000001
 43
0.00000001
 40
0.0
 40
0.0
 40
0.0
 40
0.0
 40
0.0625009163743325
 40
0.1250018327486644
 40
0.1875027491229963
 40
0.2500036654973282
 40
0.3125045818716607
 40
0.3750054982459926
 40
0.4375064146203251
 40
0.5000073309946571
 40
0.5625082473689893
 40
0.6250091637433213
 40
0.6875100801176534
 40
0.7500109964919859
 40
0.8125119128663179
 40
0.87501282924065
 40
0.9375137456149821
 40
1.0
 40
1.0
 40
1.0
 40
1.0
 10
18.42178736315482
 20
32.92580545035317
 30
0.0
 10
18.42347408994224
 20
32.92580545035317
 30
0.0
 10
18.4268475435171
 20
32.92580545035317
 30
0.0
 10
18.45379676411384
 20
32.92580545035317
 30
0.0
 10
18.49568212568714
 20
32.92580545035317
 30
0.0
 10
18.55247952044794
 20
32.92580545035317
 30
0.0
 10
18.62158141952512
 20
32.92580545035317
 30
0.0
 10
18.70044609989453
 20
32.92580545035317
 30
0.0
 10
18.78601237614188
 20
32.92580545035319
 30
0.0
 10
18.87499999995451
 20
32.92580545035318
 30
0.0
 10
18.96398762404007
 20
32.92580545035321
 30
0.0
 10
19.04955389946866
 20
32.92580545035319
 30
0.0
 10
19.12841858284019
 20
32.92580545035321
 30
0.0
 10
19.19752047072761
 20
32.9258054503532
 30
0.0
 10
19.25431790724537
 20
32.92580545035321
 30
0.0
 10
19.2962031129806
 20
32.9258054503532
 30
0.0
 10
19.32315080780242
 20
32.92580545035321
 30
0.0
 10
19.32652413048434
 20
32.92580545035321
 30
0.0
 10
19.32821059396651
 20
32.92580545035321
 30
0.0
  0
SPLINE
  5
3D9
330
1F
100
AcDbEntity
  8
0
  6
Continuous
 62
     7
370
    25
100
AcDbSpline
210
0.0
220
0.0
230
1.0
 70
    24
 71
     3
 72
    24
 73
    20
 74
     0
 42
0.000000001
 43
0.00000001
 40
0.0
 40
0.0
 40
0.0
 40
0.0
 40
0.0000146617744459
 40
0.062514661774446
 40
0.1250146617744458
 40
0.1875146617744458
 40
0.2500146617744462
 40
0.312514661774446
 40
0.375014661774446
 40
0.4375146617744461
 40
0.5000146617744459
 40
0.5625146617744456
 40
0.6250146617744456
 40
0.6875146617744458
 40
0.7500146617744459
 40
0.8125146617744459
 40
0.8750146617744461
 40
0.9375146617744461
 40
1.0
 40
1.0
 40
1.0
 40
1.0
 10
19.32821059396795
 20
9.829652498917007
 30
0.0
 10
19.32821127507329
 20
9.829652498917007
 30
0.0
 10
19.33111536219053
 20
9.829652498917007
 30
0.0
 10
19.32102303366345
 20
9.829652498917007
 30
0.0
 10
19.29677381301272
 20
9.829652498917007
 30
0.0
 10
19.25416498863416
 20
9.829652498917007
 30
0.0
 10
19.19756144514757
 20
9.829652498917007
 30
0.0
 10
19.12840760377773
 20
9.829652498917007
 30
0.0
 10
19.04955684130339
 20
9.829652498917007
 30
0.0
 10
18.96398683576695
 20
9.829652498917007
 30
0.0
 10
18.87500021121395
 20
9.829652498917007
 30
0.0
 10
18.78601231937723
 20
9.829652498917007
 30
0.0
 10
18.700446115692
 20
9.829652498917007
 30
0.0
 10
18.62158141309656
 20
9.829652498917007
 30
0.0
 10
18.55247953035985
 20
9.829652498917007
 30
0.0
 10
18.49568209246185
 20
9.829652498917007
 30
0.0
 10
18.4537968870958
 20
9.829652498917007
 30
0.0
 10
18.42684919217672
 20
9.829652498917007
 30
0.0
 10
18.42347586950775
 20
9.829652498917007
 30
0.0
 10
18.42178940603205
 20
9.829652498917007
 30
0.0
  0
LINE
  5
3DA
330
1F
100
AcDbEntity
  8
0
  6
Continuous
 62
     7
370
    25
100
AcDbLine
 10
19.75
 20
8.718185927061413
 30
0.0
 11
19.53071263684652
 21
8.798000000000002
 31
0.0
  0
LINE
  5
3DB
330
1F
100
AcDbEntity
  8
0
  6
Continuous
 62
     7
370
    25
100
AcDbLine
 10
18.21928736315348
 20
8.798000000000002
 30
0.0
 11
18.0
 21
8.718185927061413
 31
0.0
  0
LINE
  5
3DC
330
1F
100
AcDbEntity
  8
0
  6
Continuous
 62
     7
370
    25
100
AcDbLine
 10
19.71999999999701
 20
22.73371452162827
 30
0.0
 11
19.32800000000003
 21
32.92580545035317
 31
0.0
  0
LINE
  5
3DD
330
1F
100
AcDbEntity
  8
0
  6
Continuous
 62
     7
370
    25
100
AcDbLine
 10
18.422
 20
32.92580545035317
 30
0.0
 11
18.03000000000301
 21
22.73371452162827
 31
0.0
  0
LINE
  5
3DE
330
1F
100
AcDbEntity
  8
0
  6
Continuous
 62
     7
370
    25
100
AcDbLine
 10
18.03000000003475
 20
20.02174342764458
 30
0.0
 11
18.422
 21
9.829652498917007
 31
0.0
  0
LINE
  5
3DF
330
1F
100
AcDbEntity
  8
0
  6
Continuous
 62
     7
370
    25
100
AcDbLine
 10
19.328
 20
9.829652498917005
 30
0.0
 11
19.71999999996526
 21
20.02174342764458
 31
0.0
  0
LINE
  5
3E0
330
1F
100
AcDbEntity
  8
0
  6
Continuous
 62
     7
370
    25
100
AcDbLine
 10
18.21928731309074
 20
33.51886912286824
 30
0.0
 11
18.21928731309074
 21
33.39380528661168
 31
0.0
  0
LINE
  5
3E1
330
1F
100
AcDbEntity
  8
0
  6
Continuous
 62
     7
370
    25
100
AcDbLine
 10
19.53071268690922
 20
33.39380528661175
 30
0.0
 11
19.53071268690921
 21
33.5188691228683
 31
0.0
  0
LINE
  5
3E2
330
1F
100
AcDbEntity
  8
0
  6
Continuous
 62
     7
370
    25
100
AcDbLine
 10
19.53071263684659
 20
9.235872327478436
 30
0.0
 11
19.53071263684659
 21
9.36093616373479
 31
0.0
  0
LINE
  5
3E3
330
1F
100
AcDbEntity
  8
0
  6
Continuous
 62
     7
370
    25
100
AcDbLine
 10
18.21928736315341
 20
9.36093616373479
 30
0.0
 11
18.21928736315341
 21
9.235872327478436
 31
0.0
  0
LINE
  5
3E4
330
1F
100
AcDbEntity
  8
0
  6
Continuous
 62
     7
370
    25
100
AcDbLine
 10
18.21928736315917
 20
34.08186928661313
 30
0.0
 11
18.21928736315918
 21
33.95680528661312
 31
0.0
  0
LINE
  5
3E5
330
1F
100
AcDbEntity
  8
0
  6
Continuous
 62
     7
370
    25
100
AcDbLine
 10
19.53071263684073
 20
33.95680528661319
 30
0.0
 11
19.53071263684073
 21
34.08186928661318
 31
0.0
  0
LINE
  5
3E6
330
1F
100
AcDbEntity
  8
0
  6
Continuous
 62
     7
370
    25
100
AcDbLine
 10
18.42178736315336
 20
9.829652498917007
 30
0.0
 11
18.48428736315327
 21
9.810544331325824
 31
0.0
  0
LINE
  5
3E7
330
1F
100
AcDbEntity
  8
0
  6
Continuous
 62
     7
370
    25
100
AcDbLine
 10
19.26571263684673
 20
9.810544331325824
 30
0.0
 11
19.32821263684664
 21
9.829652498917007
 31
0.0
  0
LINE
  5
3E8
330
1F
100
AcDbEntity
  8
0
  6
Continuous
 62
     7
370
    25
100
AcDbLine
 10
19.32821263684518
 20
32.92580545035321
 30
0.0
 11
19.26571263684814
 21
32.94491361794446
 31
0.0
  0
LINE
  5
3E9
330
1F
100
AcDbEntity
  8
0
  6
Continuous
 62
     7
370
    25
100
AcDbLine
 10
18.48428736315186
 20
32.94491361794442
 30
0.0
 11
18.42178736315482
 21
32.92580545035317
 31
0.0
  0
LINE
  5
3EA
330
1F
100
AcDbEntity
  8
0
  6
Continuous
 62
     7
370
    25
100
AcDbLine
 10
18.4217873130906
 20
33.11330528661098
 30
0.0
 11
18.48428736315186
 21
33.09419728276204
 31
0.0
  0
LINE
  5
3EB
330
1F
100
AcDbEntity
  8
0
  6
Continuous
 62
     7
370
    25
100
AcDbLine
 10
19.26571263684813
 20
33.09419728276207
 30
0.0
 11
19.32821268690939
 21
33.11330528661102
 31
0.0
  0
LINE
  5
3EC
330
1F
100
AcDbEntity
  8
0
  6
Continuous
 62
     7
370
    25
100
AcDbLine
 10
19.32821263684786
 20
34.36236928660968
 30
0.0
 11
19.24999999999816
 21
34.38628128937242
 31
0.0
  0
LINE
  5
3ED
330
1F
100
AcDbEntity
  8
0
  6
Continuous
 62
     7
370
    25
100
AcDbLine
 10
18.50000000000171
 20
34.38628128937238
 30
0.0
 11
18.42178736315201
 21
34.36236928660963
 31
0.0
  0
LINE
  5
3EE
330
1F
100
AcDbEntity
  8
0
  6
Continuous
 62
     7
370
    25
100
AcDbLine
 10
19.32821263684671
 20
9.64143616373464
 30
0.0
 11
19.26571263684673
 21
9.660544331325823
 31
0.0
  0
LINE
  5
3EF
330
1F
100
AcDbEntity
  8
0
  6
Continuous
 62
     7
370
    25
100
AcDbLine
 10
18.48428736315327
 20
9.660544331325823
 30
0.0
 11
18.42178736315329
 21
9.64143616373464
 31
0.0
  0
LINE
  5
3F0
330
1F
100
AcDbEntity
  8
0
  6
Continuous
 62
     7
370
    25
100
AcDbLine
 10
18.46749999999878
 20
22.29461771820191
 30
0.0
 11
18.52000000000236
 21
22.27856685743368
 31
0.0
  0
LINE
  5
3F1
330
1F
100
AcDbEntity
  8
0
  6
Continuous
 62
     7
370
    25
100
AcDbLine
 10
19.22999999999766
 20
22.27856685743368
 30
0.0
 11
19.28250000000124
 21
22.29461771820191
 31
0.0
  0
LINE
  5
3F2
330
1F
100
AcDbEntity
  8
0
  6
Continuous
 62
     7
370
    25
100
AcDbLine
 10
19.28250000000113
 20
20.46084023106007
 30
0.0
 11
19.23000000000021
 21
20.47689109183683
 31
0.0
  0
LINE
  5
3F3
330
1F
100
AcDbEntity
  8
0
  6
Continuous
 62
     7
370
    25
100
AcDbLine
 10
18.51999999999981
 20
20.47689109183683
 30
0.0
 11
18.46749999999889
 21
20.46084023106007
 31
0.0
  0
LINE
  5
3F4
330
1F
100
AcDbEntity
  8
0
  6
Continuous
 62
     7
370
    25
100
AcDbLine
 10
18.48428736315186
 20
33.09419728276204
 30
0.0
 11
18.48428736315186
 21
32.94491361794442
 31
0.0
  0
LINE
  5
3F5
330
1F
100
AcDbEntity
  8
0
  6
Continuous
 62
     7
370
    25
100
AcDbLine
 10
19.26571263684814
 20
32.94491361794446
 30
0.0
 11
19.26571263684813
 21
33.09419728276207
 31
0.0
  0
LINE
  5
3F6
330
1F
100
AcDbEntity
  8
0
  6
Continuous
 62
     7
370
    25
100
AcDbLine
 10
19.26571263684673
 20
9.660544331325823
 30
0.0
 11
19.26571263684673
 21
9.810544331325824
 31
0.0
  0
LINE
  5
3F7
330
1F
100
AcDbEntity
  8
0
  6
Continuous
 62
     7
370
    25
100
AcDbLine
 10
18.48428736315327
 20
9.810544331325824
 30
0.0
 11
18.48428736315327
 21
9.660544331325823
 31
0.0
  0
LINE
  5
3F8
330
1F
100
AcDbEntity
  8
0
  6
Continuous
 62
     7
370
    25
100
AcDbLine
 10
18.5
 20
0.5000000000000018
 30
0.0
 11
18.5
 21
0.0
 31
0.0
  0
LINE
  5
3F9
330
1F
100
AcDbEntity
  8
0
  6
Continuous
 62
     7
370
    25
100
AcDbLine
 10
19.25
 20
0.0
 30
0.0
 11
19.25
 21
0.5000000000000018
 31
0.0
  0
LINE
  5
3FA
330
1F
100
AcDbEntity
  8
0
  6
Continuous
 62
     7
370
    25
100
AcDbLine
 10
19.24999999999895
 20
34.38628128937238
 30
0.0
 11
19.24999999999895
 21
42.0002812893724
 31
0.0
  0
LINE
  5
3FB
330
1F
100
AcDbEntity
  8
0
  6
Continuous
 62
     7
370
    25
100
AcDbLine
 10
18.50000000000092
 20
42.0002812893724
 30
0.0
 11
18.50000000000092
 21
34.38628128937238
 31
0.0
  0
LINE
  5
3FC
330
1F
100
AcDbEntity
  8
0
  6
Continuous
 62
     7
370
    25
100
AcDbLine
 10
19.23000000000021
 20
20.47689109183683
 30
0.0
 11
19.23000000000021
 21
20.61091739412878
 31
0.0
  0
LINE
  5
3FD
330
1F
100
AcDbEntity
  8
0
  6
Continuous
 62
     7
370
    25
100
AcDbLine
 10
18.51999999999981
 20
20.61091739412878
 30
0.0
 11
18.51999999999981
 21
20.47689109183683
 31
0.0
  0
LINE
  5
3FE
330
1F
100
AcDbEntity
  8
0
  6
Continuous
 62
     7
370
    25
100
AcDbLine
 10
19.22999999999766
 20
22.14454055514257
 30
0.0
 11
19.22999999999766
 21
22.27856685743368
 31
0.0
  0
LINE
  5
3FF
330
1F
100
AcDbEntity
  8
0
  6
Continuous
 62
     7
370
    25
100
AcDbLine
 10
18.52000000000236
 20
22.27856685743368
 30
0.0
 11
18.52000000000236
 21
22.14454055514257
 31
0.0
  0
LINE
  5
400
330
1F
100
AcDbEntity
  8
0
  6
Continuous
 62
     7
370
    25
100
AcDbLine
 10
18.21928736315348
 20
8.798000000000002
 30
0.0
 11
19.53071263684652
 21
8.798000000000002
 31
0.0
  0
LINE
  5
401
330
1F
100
AcDbEntity
  8
0
  6
Continuous
 62
     7
370
    25
100
AcDbLine
 10
19.75
 20
0.5000000000000018
 30
0.0
 11
18.0
 21
0.5000000000000018
 31
0.0
  0
LINE
  5
402
330
1F
100
AcDbEntity
  8
0
  6
Continuous
 62
     7
370
    25
100
AcDbLine
 10
19.75
 20
0.5000000000000018
 30
0.0
 11
19.75
 21
8.58626969564489
 31
0.0
  0
LINE
  5
403
330
1F
100
AcDbEntity
  8
0
  6
Continuous
 62
     7
370
    25
100
AcDbLine
 10
18.0
 20
0.5000000000000018
 30
0.0
 11
18.0
 21
8.58626969564489
 31
0.0
  0
LINE
  5
404
330
1F
100
AcDbEntity
  8
0
  6
Continuous
 62
     7
370
    25
100
AcDbLine
 10
19.53071263684659
 20
9.235872327478436
 30
0.0
 11
18.21928736315341
 21
9.235872327478436
 31
0.0
  0
LINE
  5
405
330
1F
100
AcDbEntity
  8
0
  6
Continuous
 62
     7
370
    25
100
AcDbLine
 10
19.22999999999766
 20
22.14454055514257
 30
0.0
 11
18.52000000000236
 21
22.14454055514257
 31
0.0
  0
LINE
  5
406
330
1F
100
AcDbEntity
  8
0
  6
Continuous
 62
     7
370
    25
100
AcDbLine
 10
19.23000000000021
 20
20.61091739412878
 30
0.0
 11
18.51999999999981
 21
20.61091739412878
 31
0.0
  0
LINE
  5
407
330
1F
100
AcDbEntity
  8
0
  6
Continuous
 62
     7
370
    25
100
AcDbLine
 10
19.71999999999701
 20
22.73371452162827
 30
0.0
 11
18.03000000000301
 21
22.73371452162827
 31
0.0
  0
LINE
  5
408
330
1F
100
AcDbEntity
  8
0
  6
Continuous
 62
     7
370
    25
100
AcDbLine
 10
19.28250000000124
 20
22.29461771820191
 30
0.0
 11
18.46749999999878
 21
22.29461771820191
 31
0.0
  0
LINE
  5
409
330
1F
100
AcDbEntity
  8
0
  6
Continuous
 62
     7
370
    25
100
AcDbLine
 10
19.28250000000113
 20
20.46084023106007
 30
0.0
 11
18.46749999999889
 21
20.46084023106007
 31
0.0
  0
LINE
  5
40A
330
1F
100
AcDbEntity
  8
0
  6
Continuous
 62
     7
370
    25
100
AcDbLine
 10
19.71999999996526
 20
20.02174342764458
 30
0.0
 11
18.03000000003475
 21
20.02174342764458
 31
0.0
  0
LINE
  5
40B
330
1F
100
AcDbEntity
  8
0
  6
Continuous
 62
     7
370
    25
100
AcDbLine
 10
18.21928736315917
 20
33.95680528661312
 30
0.0
 11
19.53071263684074
 21
33.95680528661319
 31
0.0
  0
LINE
  5
40C
330
1F
100
AcDbEntity
  8
0
  6
Continuous
 62
     7
370
    25
100
AcDbLine
 10
18.21928731309074
 20
33.51886912286824
 30
0.0
 11
19.53071268690921
 21
33.5188691228683
 31
0.0
  0
LINE
  5
40D
330
1F
100
AcDbEntity
  8
0
  6
Continuous
 62
     7
370
    25
100
AcDbLine
 10
18.21928731309074
 20
33.39380528661168
 30
0.0
 11
19.53071268690922
 21
33.39380528661175
 31
0.0
  0
LINE
  5
40E
330
1F
100
AcDbEntity
  8
0
  6
Continuous
 62
     7
370
    25
100
AcDbLine
 10
18.4217873130906
 20
33.11330528661098
 30
0.0
 11
19.32821268690939
 21
33.11330528661102
 31
0.0
  0
LINE
  5
40F
330
1F
100
AcDbEntity
  8
0
  6
Continuous
 62
     7
370
    25
100
AcDbLine
 10
19.53071263684659
 20
9.36093616373479
 30
0.0
 11
18.21928736315341
 21
9.36093616373479
 31
0.0
  0
LINE
  5
410
330
1F
100
AcDbEntity
  8
0
  6
Continuous
 62
     7
370
    25
100
AcDbLine
 10
19.32821263684671
 20
9.64143616373464
 30
0.0
 11
18.42178736315329
 21
9.64143616373464
 31
0.0
  0
LINE
  5
411
330
1F
100
AcDbEntity
  8
0
  6
Continuous
 62
     7
370
    25
100
AcDbLine
 10
18.21928736315917
 20
34.08186928661313
 30
0.0
 11
19.53071263684073
 21
34.08186928661318
 31
0.0
  0
LINE
  5
412
330
1F
100
AcDbEntity
  8
0
  6
Continuous
 62
     7
370
    25
100
AcDbLine
 10
18.42178736315201
 20
34.36236928660963
 30
0.0
 11
19.32821263684786
 21
34.36236928660968
 31
0.0
  0
LINE
  5
413
330
1F
100
AcDbEntity
  8
0
  6
Continuous
 62
     7
370
    25
100
AcDbLine
 10
19.26571263684673
 20
9.810544331325824
 30
0.0
 11
18.48428736315327
 21
9.810544331325824
 31
0.0
  0
LINE
  5
414
330
1F
100
AcDbEntity
  8
0
  6
Continuous
 62
     7
370
    25
100
AcDbLine
 10
18.48428736315186
 20
32.94491361794442
 30
0.0
 11
19.26571263684814
 21
32.94491361794446
 31
0.0
  0
LINE
  5
415
330
1F
100
AcDbEntity
  8
0
  6
Continuous
 62
     7
370
    25
100
AcDbLine
 10
18.48428736315186
 20
33.09419728276204
 30
0.0
 11
19.26571263684813
 21
33.09419728276207
 31
0.0
  0
LINE
  5
416
330
1F
100
AcDbEntity
  8
0
  6
Continuous
 62
     7
370
    25
100
AcDbLine
 10
18.50000000000171
 20
34.38628128937238
 30
0.0
 11
19.24999999999816
 21
34.38628128937242
 31
0.0
  0
LINE
  5
417
330
1F
100
AcDbEntity
  8
0
  6
Continuous
 62
     7
370
    25
100
AcDbLine
 10
19.26571263684673
 20
9.660544331325823
 30
0.0
 11
18.48428736315327
 21
9.660544331325823
 31
0.0
  0
LINE
  5
418
330
1F
100
AcDbEntity
  8
0
  6
Continuous
 62
     7
370
    25
100
AcDbLine
 10
19.22999999999766
 20
22.27856685743368
 30
0.0
 11
18.52000000000236
 21
22.27856685743368
 31
0.0
  0
LINE
  5
419
330
1F
100
AcDbEntity
  8
0
  6
Continuous
 62
     7
370
    25
100
AcDbLine
 10
19.23000000000021
 20
20.47689109183683
 30
0.0
 11
18.51999999999981
 21
20.47689109183683
 31
0.0
  0
LINE
  5
41A
330
1F
100
AcDbEntity
  8
0
  6
Continuous
 62
     7
370
    25
100
AcDbLine
 10
19.25
 20
0.0
 30
0.0
 11
18.5
 21
0.0
 31
0.0
  0
LINE
  5
41B
330
1F
100
AcDbEntity
  8
0
  6
Continuous
 62
     7
370
    25
100
AcDbLine
 10
18.50000000000092
 20
42.0002812893724
 30
0.0
 11
19.24999999999895
 21
42.0002812893724
 31
0.0
  0
ARC
  5
41C
330
1F
100
AcDbEntity
  8
0
  6
Continuous
 62
     7
370
    25
100
AcDbCircle
 10
19.49874183401958
 20
9.016936163739224
 30
0.0
 40
0.221258166010311
100
AcDbArc
 50
278.3080641087068
 51
81.69193589127735
  0
ARC
  5
41D
330
1F
100
AcDbEntity
  8
0
  6
Continuous
 62
     7
370
    25
100
AcDbCircle
 10
18.25125816598042
 20
9.016936163739224
 30
0.0
 40
0.2212581660103111
100
AcDbArc
 50
98.30806410872266
 51
261.6919358912969
  0
ARC
  5
41E
330
1F
100
AcDbEntity
  8
0
  6
Continuous
 62
     7
370
    25
100
AcDbCircle
 10
18.87499999999998
 20
21.37772897463508
 30
0.0
 40
0.8449999999992626
100
AcDbArc
 50
294.842059214432
 51
65.15794078575894
  0
ARC
  5
41F
330
1F
100
AcDbEntity
  8
0
  6
Continuous
 62
     7
370
    25
100
AcDbCircle
 10
18.875
 20
21.37772897463508
 30
0.0
 40
0.8449999999992442
100
AcDbArc
 50
114.8420592142393
 51
245.1579407855718
  0
ARC
  5
420
330
1F
100
AcDbEntity
  8
0
  6
Continuous
 62
     7
370
    25
100
AcDbCircle
 10
19.86914061363548
 20
22.14761336387495
 30
0.0
 40
0.604778876744429
100
AcDbArc
 50
104.2766179466437
 51
165.932121112714
  0
ARC
  5
421
330
1F
100
AcDbEntity
  8
0
  6
Continuous
 62
     7
370
    25
100
AcDbCircle
 10
17.88085938636454
 20
22.14761336387495
 30
0.0
 40
0.6047788767444249
100
AcDbArc
 50
14.0678788872854
 51
75.72338205335656
  0
ARC
  5
422
330
1F
100
AcDbEntity
  8
0
  6
Continuous
 62
     7
370
    25
100
AcDbCircle
 10
19.86914061363435
 20
20.60784458538978
 30
0.0
 40
0.6047788767441031
100
AcDbArc
 50
194.0678788875637
 51
255.7233820503579
  0
ARC
  5
423
330
1F
100
AcDbEntity
  8
0
  6
Continuous
 62
     7
370
    25
100
AcDbCircle
 10
17.88085938636566
 20
20.60784458538978
 30
0.0
 40
0.6047788767441055
100
AcDbArc
 50
284.2766179496452
 51
345.9321211124395
  0
ARC
  5
424
330
1F
100
AcDbEntity
  8
0
  6
Continuous
 62
     7
370
    25
100
AcDbCircle
 10
18.26347836886108
 20
33.7378371996884
 30
0.0
 40
0.2233827837511655
100
AcDbArc
 50
101.4098798920136
 51
258.5901070069469
  0
ARC
  5
425
330
1F
100
AcDbEntity
  8
0
  6
Continuous
 62
     7
370
    25
100
AcDbCircle
 10
19.48652163113885
 20
33.73783719968846
 30
0.0
 40
0.2233827837511643
100
AcDbArc
 50
281.4098929930624
 51
78.59012010799088
  0
ARC
  5
426
330
1F
100
AcDbEntity
  8
0
  6
Continuous
 62
     7
370
    25
100
AcDbCircle
 10
18.07606120045011
 20
33.07706183630989
 30
0.0
 40
0.3476206735095448
100
AcDbArc
 50
5.984619671725435
 51
65.66830944353626
  0
ARC
  5
427
330
1F
100
AcDbEntity
  8
0
  6
Continuous
 62
     7
370
    25
100
AcDbCircle
 10
19.67393879954987
 20
33.07706183630997
 30
0.0
 40
0.3476206735095408
100
AcDbArc
 50
114.3316905564685
 51
174.0153803282792
  0
ARC
  5
428
330
1F
100
AcDbEntity
  8
0
  6
Continuous
 62
     7
370
    25
100
AcDbCircle
 10
19.63581685564805
 20
9.650158460730365
 30
0.0
 40
0.3077278568626208
100
AcDbArc
 50
181.6242200198433
 51
250.0287090955921
  0
ARC
  5
429
330
1F
100
AcDbEntity
  8
0
  6
Continuous
 62
     7
370
    25
100
AcDbCircle
 10
18.11418314435195
 20
9.650158460730365
 30
0.0
 40
0.3077278568626209
100
AcDbArc
 50
289.9712909044114
 51
358.37577998016
  0
ARC
  5
42A
330
1F
100
AcDbEntity
  8
0
  6
Continuous
 62
     7
370
    25
100
AcDbCircle
 10
18.07606125051166
 20
34.39861273691177
 30
0.0
 40
0.3476206735095217
100
AcDbArc
 50
294.3316905577126
 51
354.0153803281023
  0
ARC
  5
42B
330
1F
100
AcDbEntity
  8
0
  6
Continuous
 62
     7
370
    25
100
AcDbCircle
 10
19.67393874948819
 20
34.39861273691183
 30
0.0
 40
0.347620673509506
100
AcDbArc
 50
185.9846196719027
 51
245.6683094422974
  0
SPLINE
  5
495
330
1F
100
AcDbEntity
  8
0
  6
Continuous
 62
     7
370
    25
100
AcDbSpline
210
0.0
220
0.0
230
1.0
 70
    24
 71
     3
 72
    11
 73
     7
 74
     0
 42
0.000000001
 43
0.00000001
 40
0.0
 40
0.0
 40
0.0
 40
0.0
 40
0.125579991049252
 40
0.3428415489901256
 40
0.5601707431934019
 40
1.0
 40
1.0
 40
1.0
 40
1.0
 10
25.75
 20
9.964831514407654
 30
0.0
 10
25.75
 20
9.965659012835406
 30
0.0
 10
25.75
 20
9.967918137401252
 30
0.0
 10
25.75
 20
9.950907595637604
 30
0.0
 10
25.75
 20
9.913297681722884
 30
0.0
 10
25.75
 20
9.867153507403753
 30
0.0
 10
25.75
 20
9.836269695644889
 30
0.0
  0
SPLINE
  5
496
330
1F
100
AcDbEntity
  8
0
  6
Continuous
 62
     7
370
    25
100
AcDbSpline
210
0.0
220
0.0
230
1.0
 70
     8
 71
     3
 72
    23
 73
    19
 74
     0
 42
0.000000001
 43
0.00000001
 40
0.0
 40
0.0
 40
0.0
 40
0.0
 40
0.1250000000000001
 40
0.1250000000000001
 40
0.2500000000000001
 40
0.2500000000000001
 40
0.375
 40
0.375
 40
0.5
 40
0.5
 40
0.5624999999999999
 40
0.5624999999999999
 40
0.6249999999999999
 40
0.6249999999999999
 40
0.7499999999999998
 40
0.7499999999999998
 40
0.8749999999999999
 40
1.0
 40
1.0
 40
1.0
 40
1.0
 10
25.75
 20
9.836269695644889
 30
0.0
 10
25.67964566443316
 20
9.854376496964866
 30
0.0
 10
25.60903340980733
 20
9.871473948304148
 30
0.0
 10
25.46704657057844
 20
9.902685520666525
 30
0.0
 10
25.39567195032484
 20
9.916799502173479
 30
0.0
 10
25.25181515885255
 20
9.94069313429451
 30
0.0
 10
25.17932960512847
 20
9.950459547686943
 30
0.0
 10
25.03284603739703
 20
9.96407345648361
 30
0.0
 10
24.95884039170075
 20
9.96789108575434
 30
0.0
 10
24.84647529941298
 20
9.968308468148864
 30
0.0
 10
24.80879592154778
 20
9.967569627368222
 30
0.0
 10
24.73298166126704
 20
9.964309357459726
 30
0.0
 10
24.69520183383078
 20
9.961801969685949
 30
0.0
 10
24.58267765483088
 20
9.951930552926203
 30
0.0
 10
24.50853095782523
 20
9.942210290916552
 30
0.0
 10
24.36151111436962
 20
9.918171219765856
 30
0.0
 10
24.21575643342886
 20
9.88956388909268
 30
0.0
 10
24.07172628809311
 20
9.854729590652884
 30
0.0
 10
24.0
 20
9.836269695644889
 30
0.0
  0
SPLINE
  5
497
330
1F
100
AcDbEntity
  8
0
  6
Continuous
 62
     7
370
    25
100
AcDbSpline
210
0.0
220
0.0
230
1.0
 70
    24
 71
     3
 72
    11
 73
     7
 74
     0
 42
0.000000001
 43
0.00000001
 40
0.0
 40
0.0
 40
0.0
 40
0.0
 40
0.2787361087886346
 40
0.5573678938775447
 40
0.8415344705516247
 40
1.0
 40
1.0
 40
1.0
 40
1.0
 10
24.0
 20
9.836269695644889
 30
0.0
 10
24.0
 20
9.856153755823865
 30
0.0
 10
24.0
 20
9.895914434093555
 30
0.0
 10
24.0
 20
9.940429256085476
 30
0.0
 10
24.0
 20
9.966339803049122
 30
0.0
 10
24.0
 20
9.965229139924688
 30
0.0
 10
24.0
 20
9.964831514407654
 30
0.0
  0
SPLINE
  5
498
330
1F
100
AcDbEntity
  8
0
  6
Continuous
 62
     7
370
    25
100
AcDbSpline
210
0.0
220
0.0
230
1.0
 70
    24
 71
     3
 72
    23
 73
    19
 74
     0
 42
0.000000001
 43
0.00000001
 40
0.0
 40
0.0
 40
0.0
 40
0.0
 40
0.0625009163743325
 40
0.1250018327486644
 40
0.1875027491229963
 40
0.2500036654973282
 40
0.3125045818716607
 40
0.3750054982459926
 40
0.4375064146203251
 40
0.5000073309946571
 40
0.5625082473689893
 40
0.6250091637433213
 40
0.6875100801176534
 40
0.7500109964919859
 40
0.8125119128663179
 40
0.87501282924065
 40
0.9375137456149821
 40
1.0
 40
1.0
 40
1.0
 40
1.0
 10
24.42178736315482
 20
34.17580545035317
 30
0.0
 10
24.42347408994224
 20
34.17580545035317
 30
0.0
 10
24.4268475435171
 20
34.17580545035317
 30
0.0
 10
24.45379676411384
 20
34.17580545035317
 30
0.0
 10
24.49568212568714
 20
34.17580545035317
 30
0.0
 10
24.55247952044794
 20
34.17580545035317
 30
0.0
 10
24.62158141952512
 20
34.17580545035317
 30
0.0
 10
24.70044609989453
 20
34.17580545035317
 30
0.0
 10
24.78601237614188
 20
34.17580545035319
 30
0.0
 10
24.87499999995451
 20
34.17580545035317
 30
0.0
 10
24.96398762404007
 20
34.1758054503532
 30
0.0
 10
25.04955389946866
 20
34.17580545035319
 30
0.0
 10
25.12841858284019
 20
34.1758054503532
 30
0.0
 10
25.19752047072761
 20
34.1758054503532
 30
0.0
 10
25.25431790724537
 20
34.1758054503532
 30
0.0
 10
25.2962031129806
 20
34.1758054503532
 30
0.0
 10
25.32315080780242
 20
34.1758054503532
 30
0.0
 10
25.32652413048434
 20
34.17580545035321
 30
0.0
 10
25.32821059396651
 20
34.17580545035321
 30
0.0
  0
SPLINE
  5
499
330
1F
100
AcDbEntity
  8
0
  6
Continuous
 62
     7
370
    25
100
AcDbSpline
210
0.0
220
0.0
230
1.0
 70
    24
 71
     3
 72
    24
 73
    20
 74
     0
 42
0.000000001
 43
0.00000001
 40
0.0
 40
0.0
 40
0.0
 40
0.0
 40
0.0000146617744459
 40
0.062514661774446
 40
0.1250146617744458
 40
0.1875146617744458
 40
0.2500146617744462
 40
0.312514661774446
 40
0.375014661774446
 40
0.4375146617744461
 40
0.5000146617744459
 40
0.5625146617744456
 40
0.6250146617744456
 40
0.6875146617744458
 40
0.7500146617744459
 40
0.8125146617744459
 40
0.8750146617744461
 40
0.9375146617744461
 40
1.0
 40
1.0
 40
1.0
 40
1.0
 10
25.32821059396795
 20
11.079652498917
 30
0.0
 10
25.32821127507329
 20
11.079652498917
 30
0.0
 10
25.33111536219053
 20
11.079652498917
 30
0.0
 10
25.32102303366345
 20
11.079652498917
 30
0.0
 10
25.29677381301272
 20
11.079652498917
 30
0.0
 10
25.25416498863416
 20
11.079652498917
 30
0.0
 10
25.19756144514757
 20
11.079652498917
 30
0.0
 10
25.12840760377773
 20
11.079652498917
 30
0.0
 10
25.04955684130339
 20
11.079652498917
 30
0.0
 10
24.96398683576695
 20
11.079652498917
 30
0.0
 10
24.87500021121395
 20
11.079652498917
 30
0.0
 10
24.78601231937723
 20
11.079652498917
 30
0.0
 10
24.700446115692
 20
11.079652498917
 30
0.0
 10
24.62158141309656
 20
11.079652498917
 30
0.0
 10
24.55247953035985
 20
11.079652498917
 30
0.0
 10
24.49568209246185
 20
11.079652498917
 30
0.0
 10
24.4537968870958
 20
11.079652498917
 30
0.0
 10
24.42684919217672
 20
11.079652498917
 30
0.0
 10
24.42347586950775
 20
11.079652498917
 30
0.0
 10
24.42178940603205
 20
11.079652498917
 30
0.0
  0
LINE
  5
49A
330
1F
100
AcDbEntity
  8
0
  6
Continuous
 62
     7
370
    25
100
AcDbLine
 10
25.75
 20
9.968185927061413
 30
0.0
 11
25.53071263684652
 21
10.048
 31
0.0
  0
LINE
  5
49B
330
1F
100
AcDbEntity
  8
0
  6
Continuous
 62
     7
370
    25
100
AcDbLine
 10
24.21928736315348
 20
10.048
 30
0.0
 11
24.0
 21
9.968185927061413
 31
0.0
  0
LINE
  5
49C
330
1F
100
AcDbEntity
  8
0
  6
Continuous
 62
     7
370
    25
100
AcDbLine
 10
25.71999999999701
 20
23.98371452162827
 30
0.0
 11
25.32800000000003
 21
34.17580545035317
 31
0.0
  0
LINE
  5
49D
330
1F
100
AcDbEntity
  8
0
  6
Continuous
 62
     7
370
    25
100
AcDbLine
 10
24.422
 20
34.17580545035317
 30
0.0
 11
24.03000000000301
 21
23.98371452162827
 31
0.0
  0
LINE
  5
49E
330
1F
100
AcDbEntity
  8
0
  6
Continuous
 62
     7
370
    25
100
AcDbLine
 10
24.03000000003475
 20
21.27174342764458
 30
0.0
 11
24.422
 21
11.079652498917
 31
0.0
  0
LINE
  5
49F
330
1F
100
AcDbEntity
  8
0
  6
Continuous
 62
     7
370
    25
100
AcDbLine
 10
25.328
 20
11.079652498917
 30
0.0
 11
25.71999999996526
 21
21.27174342764458
 31
0.0
  0
LINE
  5
4A0
330
1F
100
AcDbEntity
  8
0
  6
Continuous
 62
     7
370
    25
100
AcDbLine
 10
24.21928731309074
 20
34.76886912286823
 30
0.0
 11
24.21928731309074
 21
34.64380528661168
 31
0.0
  0
LINE
  5
4A1
330
1F
100
AcDbEntity
  8
0
  6
Continuous
 62
     7
370
    25
100
AcDbLine
 10
25.53071268690922
 20
34.64380528661174
 30
0.0
 11
25.53071268690921
 21
34.7688691228683
 31
0.0
  0
LINE
  5
4A2
330
1F
100
AcDbEntity
  8
0
  6
Continuous
 62
     7
370
    25
100
AcDbLine
 10
25.53071263684659
 20
10.48587232747843
 30
0.0
 11
25.53071263684659
 21
10.61093616373479
 31
0.0
  0
LINE
  5
4A3
330
1F
100
AcDbEntity
  8
0
  6
Continuous
 62
     7
370
    25
100
AcDbLine
 10
24.21928736315341
 20
10.61093616373479
 30
0.0
 11
24.21928736315341
 21
10.48587232747843
 31
0.0
  0
LINE
  5
4A4
330
1F
100
AcDbEntity
  8
0
  6
Continuous
 62
     7
370
    25
100
AcDbLine
 10
24.21928736315917
 20
35.33186928661312
 30
0.0
 11
24.21928736315918
 21
35.20680528661312
 31
0.0
  0
LINE
  5
4A5
330
1F
100
AcDbEntity
  8
0
  6
Continuous
 62
     7
370
    25
100
AcDbLine
 10
25.53071263684073
 20
35.20680528661318
 30
0.0
 11
25.53071263684073
 21
35.33186928661318
 31
0.0
  0
LINE
  5
4A6
330
1F
100
AcDbEntity
  8
0
  6
Continuous
 62
     7
370
    25
100
AcDbLine
 10
24.42178736315336
 20
11.079652498917
 30
0.0
 11
24.48428736315327
 21
11.06054433132582
 31
0.0
  0
LINE
  5
4A7
330
1F
100
AcDbEntity
  8
0
  6
Continuous
 62
     7
370
    25
100
AcDbLine
 10
25.26571263684673
 20
11.06054433132582
 30
0.0
 11
25.32821263684664
 21
11.079652498917
 31
0.0
  0
LINE
  5
4A8
330
1F
100
AcDbEntity
  8
0
  6
Continuous
 62
     7
370
    25
100
AcDbLine
 10
25.32821263684518
 20
34.17580545035321
 30
0.0
 11
25.26571263684814
 21
34.19491361794446
 31
0.0
  0
LINE
  5
4A9
330
1F
100
AcDbEntity
  8
0
  6
Continuous
 62
     7
370
    25
100
AcDbLine
 10
24.48428736315186
 20
34.19491361794442
 30
0.0
 11
24.42178736315482
 21
34.17580545035317
 31
0.0
  0
LINE
  5
4AA
330
1F
100
AcDbEntity
  8
0
  6
Continuous
 62
     7
370
    25
100
AcDbLine
 10
24.4217873130906
 20
34.36330528661097
 30
0.0
 11
24.48428736315186
 21
34.34419728276204
 31
0.0
  0
LINE
  5
4AB
330
1F
100
AcDbEntity
  8
0
  6
Continuous
 62
     7
370
    25
100
AcDbLine
 10
25.26571263684813
 20
34.34419728276207
 30
0.0
 11
25.32821268690939
 21
34.36330528661102
 31
0.0
  0
LINE
  5
4AC
330
1F
100
AcDbEntity
  8
0
  6
Continuous
 62
     7
370
    25
100
AcDbLine
 10
25.32821263684786
 20
35.61236928660968
 30
0.0
 11
25.24999999999816
 21
35.63628128937242
 31
0.0
  0
LINE
  5
4AD
330
1F
100
AcDbEntity
  8
0
  6
Continuous
 62
     7
370
    25
100
AcDbLine
 10
24.50000000000171
 20
35.63628128937238
 30
0.0
 11
24.42178736315201
 21
35.61236928660963
 31
0.0
  0
LINE
  5
4AE
330
1F
100
AcDbEntity
  8
0
  6
Continuous
 62
     7
370
    25
100
AcDbLine
 10
25.32821263684671
 20
10.89143616373464
 30
0.0
 11
25.26571263684673
 21
10.91054433132582
 31
0.0
  0
LINE
  5
4AF
330
1F
100
AcDbEntity
  8
0
  6
Continuous
 62
     7
370
    25
100
AcDbLine
 10
24.48428736315327
 20
10.91054433132582
 30
0.0
 11
24.42178736315329
 21
10.89143616373464
 31
0.0
  0
LINE
  5
4B0
330
1F
100
AcDbEntity
  8
0
  6
Continuous
 62
     7
370
    25
100
AcDbLine
 10
24.46749999999878
 20
23.54461771820191
 30
0.0
 11
24.52000000000236
 21
23.52856685743368
 31
0.0
  0
LINE
  5
4B1
330
1F
100
AcDbEntity
  8
0
  6
Continuous
 62
     7
370
    25
100
AcDbLine
 10
25.22999999999766
 20
23.52856685743368
 30
0.0
 11
25.28250000000124
 21
23.54461771820191
 31
0.0
  0
LINE
  5
4B2
330
1F
100
AcDbEntity
  8
0
  6
Continuous
 62
     7
370
    25
100
AcDbLine
 10
25.28250000000113
 20
21.71084023106007
 30
0.0
 11
25.23000000000021
 21
21.72689109183683
 31
0.0
  0
LINE
  5
4B3
330
1F
100
AcDbEntity
  8
0
  6
Continuous
 62
     7
370
    25
100
AcDbLine
 10
24.51999999999981
 20
21.72689109183683
 30
0.0
 11
24.46749999999889
 21
21.71084023106007
 31
0.0
  0
LINE
  5
4B4
330
1F
100
AcDbEntity
  8
0
  6
Continuous
 62
     7
370
    25
100
AcDbLine
 10
24.48428736315186
 20
34.34419728276204
 30
0.0
 11
24.48428736315186
 21
34.19491361794442
 31
0.0
  0
LINE
  5
4B5
330
1F
100
AcDbEntity
  8
0
  6
Continuous
 62
     7
370
    25
100
AcDbLine
 10
25.26571263684814
 20
34.19491361794446
 30
0.0
 11
25.26571263684813
 21
34.34419728276207
 31
0.0
  0
LINE
  5
4B6
330
1F
100
AcDbEntity
  8
0
  6
Continuous
 62
     7
370
    25
100
AcDbLine
 10
25.26571263684673
 20
10.91054433132582
 30
0.0
 11
25.26571263684673
 21
11.06054433132582
 31
0.0
  0
LINE
  5
4B7
330
1F
100
AcDbEntity
  8
0
  6
Continuous
 62
     7
370
    25
100
AcDbLine
 10
24.48428736315327
 20
11.06054433132582
 30
0.0
 11
24.48428736315327
 21
10.91054433132582
 31
0.0
  0
LINE
  5
4B8
330
1F
100
AcDbEntity
  8
0
  6
Continuous
 62
     7
370
    25
100
AcDbLine
 10
24.5
 20
0.5000000000000018
 30
0.0
 11
24.5
 21
0.0
 31
0.0
  0
LINE
  5
4B9
330
1F
100
AcDbEntity
  8
0
  6
Continuous
 62
     7
370
    25
100
AcDbLine
 10
25.25
 20
0.0
 30
0.0
 11
25.25
 21
0.5000000000000018
 31
0.0
  0
LINE
  5
4BA
330
1F
100
AcDbEntity
  8
0
  6
Continuous
 62
     7
370
    25
100
AcDbLine
 10
25.24999999999895
 20
35.63628128937238
 30
0.0
 11
25.24999999999895
 21
42.00028128937239
 31
0.0
  0
LINE
  5
4BB
330
1F
100
AcDbEntity
  8
0
  6
Continuous
 62
     7
370
    25
100
AcDbLine
 10
24.50000000000092
 20
42.00028128937239
 30
0.0
 11
24.50000000000092
 21
35.63628128937238
 31
0.0
  0
LINE
  5
4BC
330
1F
100
AcDbEntity
  8
0
  6
Continuous
 62
     7
370
    25
100
AcDbLine
 10
25.23000000000021
 20
21.72689109183683
 30
0.0
 11
25.23000000000021
 21
21.86091739412877
 31
0.0
  0
LINE
  5
4BD
330
1F
100
AcDbEntity
  8
0
  6
Continuous
 62
     7
370
    25
100
AcDbLine
 10
24.51999999999981
 20
21.86091739412877
 30
0.0
 11
24.51999999999981
 21
21.72689109183683
 31
0.0
  0
LINE
  5
4BE
330
1F
100
AcDbEntity
  8
0
  6
Continuous
 62
     7
370
    25
100
AcDbLine
 10
25.22999999999766
 20
23.39454055514257
 30
0.0
 11
25.22999999999766
 21
23.52856685743368
 31
0.0
  0
LINE
  5
4BF
330
1F
100
AcDbEntity
  8
0
  6
Continuous
 62
     7
370
    25
100
AcDbLine
 10
24.52000000000236
 20
23.52856685743368
 30
0.0
 11
24.52000000000236
 21
23.39454055514257
 31
0.0
  0
LINE
  5
4C0
330
1F
100
AcDbEntity
  8
0
  6
Continuous
 62
     7
370
    25
100
AcDbLine
 10
24.21928736315348
 20
10.048
 30
0.0
 11
25.53071263684652
 21
10.048
 31
0.0
  0
LINE
  5
4C1
330
1F
100
AcDbEntity
  8
0
  6
Continuous
 62
     7
370
    25
100
AcDbLine
 10
25.75
 20
0.5000000000000018
 30
0.0
 11
24.0
 21
0.5000000000000018
 31
0.0
  0
LINE
  5
4C2
330
1F
100
AcDbEntity
  8
0
  6
Continuous
 62
     7
370
    25
100
AcDbLine
 10
25.75
 20
0.5000000000000018
 30
0.0
 11
25.75
 21
9.836269695644889
 31
0.0
  0
LINE
  5
4C3
330
1F
100
AcDbEntity
  8
0
  6
Continuous
 62
     7
370
    25
100
AcDbLine
 10
24.0
 20
0.5000000000000018
 30
0.0
 11
24.0
 21
9.836269695644889
 31
0.0
  0
LINE
  5
4C4
330
1F
100
AcDbEntity
  8
0
  6
Continuous
 62
     7
370
    25
100
AcDbLine
 10
25.53071263684659
 20
10.48587232747843
 30
0.0
 11
24.21928736315341
 21
10.48587232747843
 31
0.0
  0
LINE
  5
4C5
330
1F
100
AcDbEntity
  8
0
  6
Continuous
 62
     7
370
    25
100
AcDbLine
 10
25.22999999999766
 20
23.39454055514257
 30
0.0
 11
24.52000000000236
 21
23.39454055514257
 31
0.0
  0
LINE
  5
4C6
330
1F
100
AcDbEntity
  8
0
  6
Continuous
 62
     7
370
    25
100
AcDbLine
 10
25.23000000000021
 20
21.86091739412877
 30
0.0
 11
24.51999999999981
 21
21.86091739412877
 31
0.0
  0
LINE
  5
4C7
330
1F
100
AcDbEntity
  8
0
  6
Continuous
 62
     7
370
    25
100
AcDbLine
 10
25.71999999999701
 20
23.98371452162827
 30
0.0
 11
24.03000000000301
 21
23.98371452162827
 31
0.0
  0
LINE
  5
4C8
330
1F
100
AcDbEntity
  8
0
  6
Continuous
 62
     7
370
    25
100
AcDbLine
 10
25.28250000000124
 20
23.54461771820191
 30
0.0
 11
24.46749999999878
 21
23.54461771820191
 31
0.0
  0
LINE
  5
4C9
330
1F
100
AcDbEntity
  8
0
  6
Continuous
 62
     7
370
    25
100
AcDbLine
 10
25.28250000000113
 20
21.71084023106007
 30
0.0
 11
24.46749999999889
 21
21.71084023106007
 31
0.0
  0
LINE
  5
4CA
330
1F
100
AcDbEntity
  8
0
  6
Continuous
 62
     7
370
    25
100
AcDbLine
 10
25.71999999996526
 20
21.27174342764458
 30
0.0
 11
24.03000000003475
 21
21.27174342764458
 31
0.0
  0
LINE
  5
4CB
330
1F
100
AcDbEntity
  8
0
  6
Continuous
 62
     7
370
    25
100
AcDbLine
 10
24.21928736315917
 20
35.20680528661312
 30
0.0
 11
25.53071263684074
 21
35.20680528661318
 31
0.0
  0
LINE
  5
4CC
330
1F
100
AcDbEntity
  8
0
  6
Continuous
 62
     7
370
    25
100
AcDbLine
 10
24.21928731309074
 20
34.76886912286823
 30
0.0
 11
25.53071268690921
 21
34.7688691228683
 31
0.0
  0
LINE
  5
4CD
330
1F
100
AcDbEntity
  8
0
  6
Continuous
 62
     7
370
    25
100
AcDbLine
 10
24.21928731309074
 20
34.64380528661168
 30
0.0
 11
25.53071268690922
 21
34.64380528661174
 31
0.0
  0
LINE
  5
4CE
330
1F
100
AcDbEntity
  8
0
  6
Continuous
 62
     7
370
    25
100
AcDbLine
 10
24.4217873130906
 20
34.36330528661097
 30
0.0
 11
25.32821268690939
 21
34.36330528661102
 31
0.0
  0
LINE
  5
4CF
330
1F
100
AcDbEntity
  8
0
  6
Continuous
 62
     7
370
    25
100
AcDbLine
 10
25.53071263684659
 20
10.61093616373479
 30
0.0
 11
24.21928736315341
 21
10.61093616373479
 31
0.0
  0
LINE
  5
4D0
330
1F
100
AcDbEntity
  8
0
  6
Continuous
 62
     7
370
    25
100
AcDbLine
 10
25.32821263684671
 20
10.89143616373464
 30
0.0
 11
24.42178736315329
 21
10.89143616373464
 31
0.0
  0
LINE
  5
4D1
330
1F
100
AcDbEntity
  8
0
  6
Continuous
 62
     7
370
    25
100
AcDbLine
 10
24.21928736315917
 20
35.33186928661312
 30
0.0
 11
25.53071263684073
 21
35.33186928661318
 31
0.0
  0
LINE
  5
4D2
330
1F
100
AcDbEntity
  8
0
  6
Continuous
 62
     7
370
    25
100
AcDbLine
 10
24.42178736315201
 20
35.61236928660963
 30
0.0
 11
25.32821263684786
 21
35.61236928660968
 31
0.0
  0
LINE
  5
4D3
330
1F
100
AcDbEntity
  8
0
  6
Continuous
 62
     7
370
    25
100
AcDbLine
 10
25.26571263684673
 20
11.06054433132582
 30
0.0
 11
24.48428736315327
 21
11.06054433132582
 31
0.0
  0
LINE
  5
4D4
330
1F
100
AcDbEntity
  8
0
  6
Continuous
 62
     7
370
    25
100
AcDbLine
 10
24.48428736315186
 20
34.19491361794442
 30
0.0
 11
25.26571263684814
 21
34.19491361794446
 31
0.0
  0
LINE
  5
4D5
330
1F
100
AcDbEntity
  8
0
  6
Continuous
 62
     7
370
    25
100
AcDbLine
 10
24.48428736315186
 20
34.34419728276204
 30
0.0
 11
25.26571263684813
 21
34.34419728276207
 31
0.0
  0
LINE
  5
4D6
330
1F
100
AcDbEntity
  8
0
  6
Continuous
 62
     7
370
    25
100
AcDbLine
 10
24.50000000000171
 20
35.63628128937238
 30
0.0
 11
25.24999999999816
 21
35.63628128937242
 31
0.0
  0
LINE
  5
4D7
330
1F
100
AcDbEntity
  8
0
  6
Continuous
 62
     7
370
    25
100
AcDbLine
 10
25.26571263684673
 20
10.91054433132582
 30
0.0
 11
24.48428736315327
 21
10.91054433132582
 31
0.0
  0
LINE
  5
4D8
330
1F
100
AcDbEntity
  8
0
  6
Continuous
 62
     7
370
    25
100
AcDbLine
 10
25.22999999999766
 20
23.52856685743368
 30
0.0
 11
24.52000000000236
 21
23.52856685743368
 31
0.0
  0
LINE
  5
4D9
330
1F
100
AcDbEntity
  8
0
  6
Continuous
 62
     7
370
    25
100
AcDbLine
 10
25.23000000000021
 20
21.72689109183683
 30
0.0
 11
24.51999999999981
 21
21.72689109183683
 31
0.0
  0
LINE
  5
4DA
330
1F
100
AcDbEntity
  8
0
  6
Continuous
 62
     7
370
    25
100
AcDbLine
 10
25.25
 20
0.0
 30
0.0
 11
24.5
 21
0.0
 31
0.0
  0
LINE
  5
4DB
330
1F
100
AcDbEntity
  8
0
  6
Continuous
 62
     7
370
    25
100
AcDbLine
 10
24.50000000000092
 20
42.00028128937239
 30
0.0
 11
25.24999999999895
 21
42.00028128937239
 31
0.0
  0
ARC
  5
4DC
330
1F
100
AcDbEntity
  8
0
  6
Continuous
 62
     7
370
    25
100
AcDbCircle
 10
25.49874183401958
 20
10.26693616373922
 30
0.0
 40
0.221258166010311
100
AcDbArc
 50
278.3080641087068
 51
81.69193589127735
  0
ARC
  5
4DD
330
1F
100
AcDbEntity
  8
0
  6
Continuous
 62
     7
370
    25
100
AcDbCircle
 10
24.25125816598042
 20
10.26693616373922
 30
0.0
 40
0.2212581660103111
100
AcDbArc
 50
98.30806410872266
 51
261.6919358912969
  0
ARC
  5
4DE
330
1F
100
AcDbEntity
  8
0
  6
Continuous
 62
     7
370
    25
100
AcDbCircle
 10
24.87499999999998
 20
22.62772897463507
 30
0.0
 40
0.8449999999992626
100
AcDbArc
 50
294.842059214432
 51
65.15794078575894
  0
ARC
  5
4DF
330
1F
100
AcDbEntity
  8
0
  6
Continuous
 62
     7
370
    25
100
AcDbCircle
 10
24.875
 20
22.62772897463508
 30
0.0
 40
0.8449999999992442
100
AcDbArc
 50
114.8420592142395
 51
245.1579407855718
  0
ARC
  5
4E0
330
1F
100
AcDbEntity
  8
0
  6
Continuous
 62
     7
370
    25
100
AcDbCircle
 10
25.86914061363548
 20
23.39761336387495
 30
0.0
 40
0.604778876744429
100
AcDbArc
 50
104.2766179466437
 51
165.9321211127144
  0
ARC
  5
4E1
330
1F
100
AcDbEntity
  8
0
  6
Continuous
 62
     7
370
    25
100
AcDbCircle
 10
23.88085938636454
 20
23.39761336387495
 30
0.0
 40
0.6047788767444249
100
AcDbArc
 50
14.0678788872854
 51
75.72338205335656
  0
ARC
  5
4E2
330
1F
100
AcDbEntity
  8
0
  6
Continuous
 62
     7
370
    25
100
AcDbCircle
 10
25.86914061363435
 20
21.85784458538978
 30
0.0
 40
0.6047788767441031
100
AcDbArc
 50
194.0678788875637
 51
255.7233820503579
  0
ARC
  5
4E3
330
1F
100
AcDbEntity
  8
0
  6
Continuous
 62
     7
370
    25
100
AcDbCircle
 10
23.88085938636566
 20
21.85784458538978
 30
0.0
 40
0.6047788767441055
100
AcDbArc
 50
284.2766179496449
 51
345.9321211124391
  0
ARC
  5
4E4
330
1F
100
AcDbEntity
  8
0
  6
Continuous
 62
     7
370
    25
100
AcDbCircle
 10
24.26347836886108
 20
34.98783719968839
 30
0.0
 40
0.2233827837511655
100
AcDbArc
 50
101.4098798920136
 51
258.590107006946
  0
ARC
  5
4E5
330
1F
100
AcDbEntity
  8
0
  6
Continuous
 62
     7
370
    25
100
AcDbCircle
 10
25.48652163113885
 20
34.98783719968845
 30
0.0
 40
0.2233827837511643
100
AcDbArc
 50
281.4098929930624
 51
78.59012010799178
  0
ARC
  5
4E6
330
1F
100
AcDbEntity
  8
0
  6
Continuous
 62
     7
370
    25
100
AcDbCircle
 10
24.07606120045011
 20
34.32706183630989
 30
0.0
 40
0.3476206735095448
100
AcDbArc
 50
5.984619671725435
 51
65.66830944353626
  0
ARC
  5
4E7
330
1F
100
AcDbEntity
  8
0
  6
Continuous
 62
     7
370
    25
100
AcDbCircle
 10
25.67393879954987
 20
34.32706183630996
 30
0.0
 40
0.3476206735095408
100
AcDbArc
 50
114.3316905564679
 51
174.0153803282781
  0
ARC
  5
4E8
330
1F
100
AcDbEntity
  8
0
  6
Continuous
 62
     7
370
    25
100
AcDbCircle
 10
25.63581685564805
 20
10.90015846073036
 30
0.0
 40
0.3077278568626208
100
AcDbArc
 50
181.6242200198433
 51
250.0287090955921
  0
ARC
  5
4E9
330
1F
100
AcDbEntity
  8
0
  6
Continuous
 62
     7
370
    25
100
AcDbCircle
 10
24.11418314435195
 20
10.90015846073036
 30
0.0
 40
0.3077278568626209
100
AcDbArc
 50
289.9712909044114
 51
358.37577998016
  0
ARC
  5
4EA
330
1F
100
AcDbEntity
  8
0
  6
Continuous
 62
     7
370
    25
100
AcDbCircle
 10
24.07606125051166
 20
35.64861273691177
 30
0.0
 40
0.3476206735095217
100
AcDbArc
 50
294.3316905577121
 51
354.0153803281011
  0
ARC
  5
4EB
330
1F
100
AcDbEntity
  8
0
  6
Continuous
 62
     7
370
    25
100
AcDbCircle
 10
25.67393874948819
 20
35.64861273691183
 30
0.0
 40
0.347620673509506
100
AcDbArc
 50
185.9846196719039
 51
245.6683094422974
  0
ENDSEC
  0
SECTION
  2
OBJECTS
  0
DICTIONARY
  5
C
330
0
100
AcDbDictionary
281
     1
  3
ACAD_COLOR
350
73
  3
ACAD_DETAILVIEWSTYLE
350
124
  3
ACAD_GROUP
350
D
  3
ACAD_IMAGE_VARS
350
DC
  3
ACAD_LAYOUT
350
1A
  3
ACAD_MATERIAL
350
72
  3
ACAD_MLEADERSTYLE
350
B5
  3
ACAD_MLINESTYLE
350
17
  3
ACAD_PLOTSETTINGS
350
19
  3
ACAD_PLOTSTYLENAME
350
E
  3
ACAD_SCALELIST
350
B6
  3
ACAD_SECTIONVIEWSTYLE
350
125
  3
ACAD_TABLESTYLE
350
86
  3
ACAD_VISUALSTYLE
350
99
  3
ACDB_RECOMPOSE_DATA
350
4EE
  3
AcDbVariableDictionary
350
66
  3
APPDATA
350
E3
  0
SUN
  5
EF
330
94
100
AcDbSun
 90
        1
290
     0
 63
     7
421
 16777215
 40
1.0
291
     1
 91
  2455826
 92
 54000000
292
     0
 70
     2
 71
   256
280
     1
  0
DICTIONARY
  5
73
102
{ACAD_REACTORS
330
C
102
}
330
C
100
AcDbDictionary
281
     1
  0
DICTIONARY
  5
124
102
{ACAD_REACTORS
330
C
102
}
330
C
100
AcDbDictionary
281
     1
  0
DICTIONARY
  5
D
102
{ACAD_REACTORS
330
C
102
}
330
C
100
AcDbDictionary
281
     1
  0
RASTERVARIABLES
  5
DC
102
{ACAD_REACTORS
330
C
102
}
330
C
100
AcDbRasterVariables
 90
        0
 70
     1
 71
     1
 72
     5
  0
DICTIONARY
  5
1A
102
{ACAD_REACTORS
330
C
102
}
330
C
100
AcDbDictionary
281
     1
  3
Model
350
22
  3
Sheet1
350
59
  3
Sheet2
350
5E
  0
DICTIONARY
  5
72
102
{ACAD_REACTORS
330
C
102
}
330
C
100
AcDbDictionary
281
     1
  3
ByBlock
350
E4
  3
ByLayer
350
96
  3
Global
350
98
  0
DICTIONARY
  5
B5
102
{ACAD_REACTORS
330
C
102
}
330
C
100
AcDbDictionary
281
     1
  3
Standard
350
126
  0
DICTIONARY
  5
17
102
{ACAD_REACTORS
330
C
102
}
330
C
100
AcDbDictionary
281
     1
  3
Standard
350
18
  0
DICTIONARY
  5
19
102
{ACAD_REACTORS
330
C
102
}
330
C
100
AcDbDictionary
281
     1
  0
ACDBDICTIONARYWDFLT
  5
E
102
{ACAD_REACTORS
330
C
102
}
330
C
100
AcDbDictionary
281
     1
  3
Normal
350
F
100
AcDbDictionaryWithDefault
340
F
  0
DICTIONARY
  5
B6
102
{ACAD_REACTORS
330
C
102
}
330
C
100
AcDbDictionary
281
     1
  3
A0
350
B7
  3
A1
350
B8
  3
A2
350
B9
  3
A3
350
BA
  3
A4
350
BB
  3
A5
350
BC
  3
A6
350
BD
  3
A7
350
BE
  3
A8
350
BF
  3
A9
350
C0
  3
B0
350
C1
  3
B1
350
C2
  3
B2
350
C3
  3
B3
350
C4
  3
B4
350
C5
  3
B5
350
C6
  3
B6
350
C7
  3
B7
350
C8
  3
B8
350
C9
  3
B9
350
CA
  3
C0
350
CB
  3
C1
350
CC
  3
C2
350
CD
  3
C3
350
CE
  3
C4
350
CF
  3
C5
350
D0
  3
C6
350
D1
  3
C7
350
D2
  3
C8
350
D3
  3
C9
350
D4
  3
D0
350
D5
  3
D1
350
D6
  3
D2
350
D7
  0
DICTIONARY
  5
125
102
{ACAD_REACTORS
330
C
102
}
330
C
100
AcDbDictionary
281
     1
  0
DICTIONARY
  5
86
102
{ACAD_REACTORS
330
C
102
}
330
C
100
AcDbDictionary
281
     1
  3
Standard
350
87
  0
DICTIONARY
  5
99
102
{ACAD_REACTORS
330
C
102
}
330
C
100
AcDbDictionary
281
     1
  3
2dWireframe
350
9F
  3
3D Hidden
350
A1
  3
3dWireframe
350
A0
  3
Basic
350
9E
  3
Brighten
350
A5
  3
ColorChange
350
A9
  3
Conceptual
350
A2
  3
Dim
350
A4
  3
EdgeColorOff
350
E9
  3
Facepattern
350
A8
  3
Flat
350
9A
  3
FlatWithEdges
350
9B
  3
Gouraud
350
9C
  3
GouraudWithEdges
350
9D
  3
Hidden
350
E6
  3
JitterOff
350
E7
  3
Linepattern
350
A7
  3
OverhangOff
350
E8
  3
Realistic
350
A3
  3
Shaded
350
EE
  3
Shaded with edges
350
ED
  3
Shades of Gray
350
EA
  3
Sketchy
350
EB
  3
Thicken
350
A6
  3
Wireframe
350
E5
  3
X-Ray
350
EC
  0
XRECORD
  5
4EE
102
{ACAD_REACTORS
330
C
102
}
330
C
100
AcDbXrecord
280
     1
 90
        1
330
87
  0
DICTIONARY
  5
66
102
{ACAD_REACTORS
330
C
102
}
330
C
100
AcDbDictionary
281
     1
  3
CANNOSCALE
350
D8
  3
CMLEADERSTYLE
350
12A
  3
CTABLESTYLE
350
89
  3
DIMASSOC
350
67
  3
HIDETEXT
350
6B
  3
LIGHTSINBLOCKS
350
DF
  3
XCLIPFRAME
350
E0
  0
DICTIONARY
  5
E3
102
{ACAD_REACTORS
330
C
102
}
330
C
100
AcDbDictionary
281
     1
  0
LAYOUT
  5
22
102
{ACAD_REACTORS
330
1A
102
}
330
1A
100
AcDbPlotSettings
  1

  2
none_device
  4
ANSI_A_(8.50_x_11.00_Inches)
  6

 40
6.35
 41
19.05
 42
6.35
 43
19.05
 44
215.9
 45
279.4
 46
11.11250000000003
 47
0.0000000000000142
 48
0.0
 49
0.0
140
0.0
141
0.0
142
1.0
143
1.263157894736842
 70
 11444
 72
     0
 73
     1
 74
     1
  7
monochrome.ctb
 75
     0
 76
     0
 77
     2
 78
   300
147
0.7916666666666665
148
-702.8076765758875
149
-496.2830551296954
100
AcDbLayout
  1
Model
 70
     1
 71
     0
 10
0.0
 20
0.0
 11
12.0
 21
9.0
 12
0.0
 22
0.0
 32
0.0
 14
-0.0000000000000018
 24
-0.0000000000000009
 34
0.0
 15
25.75
 25
42.0002812893724
 35
0.0
146
0.0
 13
0.0
 23
0.0
 33
0.0
 16
1.0
 26
0.0
 36
0.0
 17
0.0
 27
1.0
 37
0.0
 76
     0
330
1F
331
94
  0
LAYOUT
  5
59
102
{ACAD_REACTORS
330
1A
102
}
330
1A
100
AcDbPlotSettings
  1

  2
None
  4

  6

 40
0.0
 41
0.0
 42
0.0
 43
0.0
 44
0.0
 45
0.0
 46
0.0
 47
0.0
 48
0.0
 49
0.0
140
0.0
141
0.0
142
1.0
143
1.0
 70
   688
 72
     0
 73
     0
 74
     5
  7

 75
    16
 76
     0
 77
     2
 78
   300
147
1.0
148
0.0
149
0.0
100
AcDbLayout
  1
Sheet1
 70
     1
 71
     1
 10
0.0
 20
0.0
 11
12.0
 21
9.0
 12
0.0
 22
0.0
 32
0.0
 14
0.0
 24
0.0
 34
0.0
 15
0.0
 25
0.0
 35
0.0
146
0.0
 13
0.0
 23
0.0
 33
0.0
 16
1.0
 26
0.0
 36
0.0
 17
0.0
 27
1.0
 37
0.0
 76
     0
330
58
  0
LAYOUT
  5
5E
102
{ACAD_REACTORS
330
1A
102
}
330
1A
100
AcDbPlotSettings
  1

  2
None
  4

  6

 40
0.0
 41
0.0
 42
0.0
 43
0.0
 44
0.0
 45
0.0
 46
0.0
 47
0.0
 48
0.0
 49
0.0
140
0.0
141
0.0
142
1.0
143
1.0
 70
   688
 72
     0
 73
     0
 74
     5
  7

 75
    16
 76
     0
 77
     2
 78
   300
147
1.0
148
0.0
149
0.0
100
AcDbLayout
  1
Sheet2
 70
     1
 71
     2
 10
0.0
 20
0.0
 11
12.0
 21
9.0
 12
0.0
 22
0.0
 32
0.0
 14
0.0
 24
0.0
 34
0.0
 15
0.0
 25
0.0
 35
0.0
146
0.0
 13
0.0
 23
0.0
 33
0.0
 16
1.0
 26
0.0
 36
0.0
 17
0.0
 27
1.0
 37
0.0
 76
     0
330
5D
  0
MATERIAL
  5
E4
102
{ACAD_REACTORS
330
72
102
}
330
72
100
AcDbMaterial
  1
ByBlock
 72
     1
 94
      127
  0
MATERIAL
  5
96
102
{ACAD_REACTORS
330
72
102
}
330
72
100
AcDbMaterial
  1
ByLayer
 72
     1
 94
       63
  0
MATERIAL
  5
98
102
{ACAD_REACTORS
330
72
102
}
330
72
100
AcDbMaterial
  1
Global
 72
     1
 94
       63
  0
MLEADERSTYLE
  5
126
102
{ACAD_REACTORS
330
B5
102
}
330
B5
100
AcDbMLeaderStyle
179
     2
170
     2
171
     1
172
     0
 90
        2
 40
0.0
 41
0.0
173
     1
 91
-1056964608
340
14
 92
       -2
290
     1
 42
0.09
291
     1
 43
0.36
  3
Standard
341
0
 44
0.18
300

342
11
174
     1
178
     6
175
     1
176
     0
 93
-1056964608
 45
0.18
292
     0
297
     0
 46
0.18
343
0
 94
-1056964608
 47
1.0
 49
1.0
140
1.0
293
     1
141
0.0
294
     1
177
     0
142
1.0
295
     0
296
     0
143
0.125
271
     0
272
     9
273
     9
298
     0
  0
MLINESTYLE
  5
18
102
{ACAD_REACTORS
330
17
102
}
330
17
100
AcDbMlineStyle
  2
STANDARD
 70
     0
  3

 62
   256
 51
90.0
 52
90.0
 71
     2
 49
0.5
 62
   256
  6
BYLAYER
 49
-0.5
 62
   256
  6
BYLAYER
  0
ACDBPLACEHOLDER
  5
F
102
{ACAD_REACTORS
330
E
102
}
330
E
  0
SCALE
  5
B7
102
{ACAD_REACTORS
330
B6
102
}
330
B6
100
AcDbScale
 70
     0
300
1:1
140
1.0
141
1.0
290
     1
  0
SCALE
  5
B8
102
{ACAD_REACTORS
330
B6
102
}
330
B6
100
AcDbScale
 70
     0
300
1:2
140
1.0
141
2.0
290
     0
  0
SCALE
  5
B9
102
{ACAD_REACTORS
330
B6
102
}
330
B6
100
AcDbScale
 70
     0
300
1:4
140
1.0
141
4.0
290
     0
  0
SCALE
  5
BA
102
{ACAD_REACTORS
330
B6
102
}
330
B6
100
AcDbScale
 70
     0
300
1:5
140
1.0
141
5.0
290
     0
  0
SCALE
  5
BB
102
{ACAD_REACTORS
330
B6
102
}
330
B6
100
AcDbScale
 70
     0
300
1:8
140
1.0
141
8.0
290
     0
  0
SCALE
  5
BC
102
{ACAD_REACTORS
330
B6
102
}
330
B6
100
AcDbScale
 70
     0
300
1:10
140
1.0
141
10.0
290
     0
  0
SCALE
  5
BD
102
{ACAD_REACTORS
330
B6
102
}
330
B6
100
AcDbScale
 70
     0
300
1:16
140
1.0
141
16.0
290
     0
  0
SCALE
  5
BE
102
{ACAD_REACTORS
330
B6
102
}
330
B6
100
AcDbScale
 70
     0
300
1:20
140
1.0
141
20.0
290
     0
  0
SCALE
  5
BF
102
{ACAD_REACTORS
330
B6
102
}
330
B6
100
AcDbScale
 70
     0
300
1:30
140
1.0
141
30.0
290
     0
  0
SCALE
  5
C0
102
{ACAD_REACTORS
330
B6
102
}
330
B6
100
AcDbScale
 70
     0
300
1:40
140
1.0
141
40.0
290
     0
  0
SCALE
  5
C1
102
{ACAD_REACTORS
330
B6
102
}
330
B6
100
AcDbScale
 70
     0
300
1:50
140
1.0
141
50.0
290
     0
  0
SCALE
  5
C2
102
{ACAD_REACTORS
330
B6
102
}
330
B6
100
AcDbScale
 70
     0
300
1:100
140
1.0
141
100.0
290
     0
  0
SCALE
  5
C3
102
{ACAD_REACTORS
330
B6
102
}
330
B6
100
AcDbScale
 70
     0
300
2:1
140
2.0
141
1.0
290
     0
  0
SCALE
  5
C4
102
{ACAD_REACTORS
330
B6
102
}
330
B6
100
AcDbScale
 70
     0
300
4:1
140
4.0
141
1.0
290
     0
  0
SCALE
  5
C5
102
{ACAD_REACTORS
330
B6
102
}
330
B6
100
AcDbScale
 70
     0
300
8:1
140
8.0
141
1.0
290
     0
  0
SCALE
  5
C6
102
{ACAD_REACTORS
330
B6
102
}
330
B6
100
AcDbScale
 70
     0
300
10:1
140
10.0
141
1.0
290
     0
  0
SCALE
  5
C7
102
{ACAD_REACTORS
330
B6
102
}
330
B6
100
AcDbScale
 70
     0
300
100:1
140
100.0
141
1.0
290
     0
  0
SCALE
  5
C8
102
{ACAD_REACTORS
330
B6
102
}
330
B6
100
AcDbScale
 70
     0
300
1/128" = 1'-0"
140
0.0078125
141
12.0
290
     0
  0
SCALE
  5
C9
102
{ACAD_REACTORS
330
B6
102
}
330
B6
100
AcDbScale
 70
     0
300
1/64" = 1'-0"
140
0.015625
141
12.0
290
     0
  0
SCALE
  5
CA
102
{ACAD_REACTORS
330
B6
102
}
330
B6
100
AcDbScale
 70
     0
300
1/32" = 1'-0"
140
0.03125
141
12.0
290
     0
  0
SCALE
  5
CB
102
{ACAD_REACTORS
330
B6
102
}
330
B6
100
AcDbScale
 70
     0
300
1/16" = 1'-0"
140
0.0625
141
12.0
290
     0
  0
SCALE
  5
CC
102
{ACAD_REACTORS
330
B6
102
}
330
B6
100
AcDbScale
 70
     0
300
3/32" = 1'-0"
140
0.09375
141
12.0
290
     0
  0
SCALE
  5
CD
102
{ACAD_REACTORS
330
B6
102
}
330
B6
100
AcDbScale
 70
     0
300
1/8" = 1'-0"
140
0.125
141
12.0
290
     0
  0
SCALE
  5
CE
102
{ACAD_REACTORS
330
B6
102
}
330
B6
100
AcDbScale
 70
     0
300
3/16" = 1'-0"
140
0.1875
141
12.0
290
     0
  0
SCALE
  5
CF
102
{ACAD_REACTORS
330
B6
102
}
330
B6
100
AcDbScale
 70
     0
300
1/4" = 1'-0"
140
0.25
141
12.0
290
     0
  0
SCALE
  5
D0
102
{ACAD_REACTORS
330
B6
102
}
330
B6
100
AcDbScale
 70
     0
300
3/8" = 1'-0"
140
0.375
141
12.0
290
     0
  0
SCALE
  5
D1
102
{ACAD_REACTORS
330
B6
102
}
330
B6
100
AcDbScale
 70
     0
300
1/2" = 1'-0"
140
0.5
141
12.0
290
     0
  0
SCALE
  5
D2
102
{ACAD_REACTORS
330
B6
102
}
330
B6
100
AcDbScale
 70
     0
300
3/4" = 1'-0"
140
0.75
141
12.0
290
     0
  0
SCALE
  5
D3
102
{ACAD_REACTORS
330
B6
102
}
330
B6
100
AcDbScale
 70
     0
300
1" = 1'-0"
140
1.0
141
12.0
290
     0
  0
SCALE
  5
D4
102
{ACAD_REACTORS
330
B6
102
}
330
B6
100
AcDbScale
 70
     0
300
1-1/2" = 1'-0"
140
1.5
141
12.0
290
     0
  0
SCALE
  5
D5
102
{ACAD_REACTORS
330
B6
102
}
330
B6
100
AcDbScale
 70
     0
300
3" = 1'-0"
140
3.0
141
12.0
290
     0
  0
SCALE
  5
D6
102
{ACAD_REACTORS
330
B6
102
}
330
B6
100
AcDbScale
 70
     0
300
6" = 1'-0"
140
6.0
141
12.0
290
     0
  0
SCALE
  5
D7
102
{ACAD_REACTORS
330
B6
102
}
330
B6
100
AcDbScale
 70
     0
300
1'-0" = 1'-0"
140
12.0
141
12.0
290
     0
  0
TABLESTYLE
  5
87
102
{ACAD_REACTORS
330
86
102
}
102
{ACAD_XDICTIONARY
360
4EC
102
}
330
86
100
AcDbTableStyle
  3
Standard
 70
     0
 71
     0
 40
0.06
 41
0.06
280
     0
281
     0
  7
Standard
140
0.18
170
     2
 62
     0
 63
   257
283
     0
 90
      512
 91
        0
  1

274
    -2
284
     1
 64
     0
275
    -2
285
     1
 65
     0
276
    -2
286
     1
 66
     0
277
    -2
287
     1
 67
     0
278
    -2
288
     1
 68
     0
279
    -2
289
     1
 69
     0
  7
Standard
140
0.25
170
     5
 62
     0
 63
   257
283
     0
 90
      512
 91
        0
  1

274
    -2
284
     1
 64
     0
275
    -2
285
     1
 65
     0
276
    -2
286
     1
 66
     0
277
    -2
287
     1
 67
     0
278
    -2
288
     1
 68
     0
279
    -2
289
     1
 69
     0
  7
Standard
140
0.18
170
     5
 62
     0
 63
   257
283
     0
 90
      512
 91
        0
  1

274
    -2
284
     1
 64
     0
275
    -2
285
     1
 65
     0
276
    -2
286
     1
 66
     0
277
    -2
287
     1
 67
     0
278
    -2
288
     1
 68
     0
279
    -2
289
     1
 69
     0
  0
VISUALSTYLE
  5
9F
102
{ACAD_REACTORS
330
99
102
}
330
99
100
AcDbVisualStyle
  2
2dWireframe
 70
     4
177
     3
291
     0
 70
    58
 90
        0
176
     1
 90
        2
176
     1
 90
        1
176
     1
 90
        0
176
     1
 40
-0.6
176
     1
 40
-30.0
176
     1
 62
     7
420
 16777215
176
     1
 90
        1
176
     1
 90
        4
176
     1
 62
     7
176
     1
 62
   257
176
     1
 90
        1
176
     1
 90
        1
176
     1
 40
1.0
176
     1
 90
        0
176
     1
 62
   257
176
     1
 40
1.0
176
     1
 90
        1
176
     1
 90
        6
176
     1
 90
        2
176
     1
 62
     7
176
     1
 90
        5
176
     1
 90
        0
176
     1
 90
        0
176
     1
290
     0
176
     1
 90
        1
176
     1
 40
0.0
176
     1
 90
        0
176
     1
290
     1
176
     1
290
     1
176
     1
290
     0
176
     1
290
     0
176
     1
290
     0
176
     1
290
     0
176
     1
290
     0
176
     1
290
     0
176
     1
290
     0
176
     1
 90
       50
176
     1
 40
0.0
176
     1
 40
1.0
176
     1
 90
        0
176
     1
 62
    18
420
        0
176
     1
 90
       50
176
     1
 90
        3
176
     1
 62
     5
420
      255
176
     1
290
     0
176
     1
 90
       50
176
     1
 90
       50
176
     1
 90
       50
176
     1
290
     0
176
     1
 90
       50
176
     1
 62
   256
176
     0
 40
1.0
176
     0
 90
        2
176
     1
  1
strokes_ogs.tif
176
     1
290
     0
176
     1
 40
1.0
176
     1
 40
1.0
176
     1
  0
VISUALSTYLE
  5
A1
102
{ACAD_REACTORS
330
99
102
}
330
99
100
AcDbVisualStyle
  2
3D Hidden
 70
     6
177
     3
291
     0
 70
    58
 90
        1
176
     1
 90
        2
176
     1
 90
        2
176
     1
 90
        0
176
     1
 40
-0.6
176
     1
 40
-30.0
176
     1
 62
     7
420
 16777215
176
     1
 90
        2
176
     1
 90
        2
176
     1
 62
     7
176
     1
 62
   257
176
     1
 90
        2
176
     1
 90
        1
176
     1
 40
40.0
176
     1
 90
        0
176
     1
 62
   257
176
     1
 40
1.0
176
     1
 90
        1
176
     1
 90
        6
176
     1
 90
        2
176
     1
 62
     7
176
     1
 90
        3
176
     1
 90
        0
176
     1
 90
        0
176
     1
290
     0
176
     1
 90
        1
176
     1
 40
0.0
176
     1
 90
        0
176
     1
290
     0
176
     1
290
     1
176
     1
290
     1
176
     1
290
     0
176
     1
290
     0
176
     1
290
     0
176
     1
290
     0
176
     1
290
     0
176
     1
290
     0
176
     1
 90
       50
176
     1
 40
0.0
176
     1
 40
1.0
176
     1
 90
        0
176
     1
 62
    18
420
        0
176
     1
 90
       50
176
     1
 90
        3
176
     1
 62
     5
420
      255
176
     1
290
     0
176
     1
 90
       50
176
     1
 90
       50
176
     1
 90
       50
176
     1
290
     0
176
     1
 90
       50
176
     1
 62
   256
176
     0
 40
1.0
176
     0
 90
        2
176
     1
  1
strokes_ogs.tif
176
     1
290
     0
176
     1
 40
1.0
176
     1
 40
1.0
176
     1
  0
VISUALSTYLE
  5
A0
102
{ACAD_REACTORS
330
99
102
}
330
99
100
AcDbVisualStyle
  2
3dWireframe
 70
     5
177
     3
291
     0
 70
    58
 90
        0
176
     1
 90
        2
176
     1
 90
        1
176
     1
 90
        0
176
     1
 40
-0.6
176
     1
 40
-30.0
176
     1
 62
     7
420
 16777215
176
     1
 90
        1
176
     1
 90
        4
176
     1
 62
     7
176
     1
 62
   257
176
     1
 90
        1
176
     1
 90
        1
176
     1
 40
1.0
176
     1
 90
        0
176
     1
 62
   257
176
     1
 40
1.0
176
     1
 90
        1
176
     1
 90
        6
176
     1
 90
        2
176
     1
 62
     7
176
     1
 90
        5
176
     1
 90
        0
176
     1
 90
        0
176
     1
290
     0
176
     1
 90
        1
176
     1
 40
0.0
176
     1
 90
        0
176
     1
290
     0
176
     1
290
     1
176
     1
290
     1
176
     1
290
     0
176
     1
290
     0
176
     1
290
     0
176
     1
290
     0
176
     1
290
     0
176
     1
290
     0
176
     1
 90
       50
176
     1
 40
0.0
176
     1
 40
1.0
176
     1
 90
        0
176
     1
 62
    18
420
        0
176
     1
 90
       50
176
     1
 90
        3
176
     1
 62
     5
420
      255
176
     1
290
     0
176
     1
 90
       50
176
     1
 90
       50
176
     1
 90
       50
176
     1
290
     0
176
     1
 90
       50
176
     1
 62
   256
176
     0
 40
1.0
176
     0
 90
        2
176
     1
  1
strokes_ogs.tif
176
     1
290
     0
176
     1
 40
1.0
176
     1
 40
1.0
176
     1
  0
VISUALSTYLE
  5
9E
102
{ACAD_REACTORS
330
99
102
}
330
99
100
AcDbVisualStyle
  2
Basic
 70
     7
177
     3
291
     1
 70
    58
 90
        1
176
     1
 90
        0
176
     1
 90
        1
176
     1
 90
        0
176
     1
 40
-0.6
176
     1
 40
-30.0
176
     1
 62
     7
420
 16777215
176
     1
 90
        0
176
     1
 90
        4
176
     1
 62
     7
176
     1
 62
   257
176
     1
 90
        1
176
     1
 90
        1
176
     1
 40
1.0
176
     1
 90
        8
176
     1
 62
     7
176
     1
 40
1.0
176
     1
 90
        1
176
     1
 90
        6
176
     1
 90
        2
176
     1
 62
     7
176
     1
 90
        5
176
     1
 90
        0
176
     1
 90
        0
176
     1
290
     0
176
     1
 90
        1
176
     1
 40
0.0
176
     1
 90
        0
176
     1
290
     0
176
     1
290
     1
176
     1
290
     1
176
     1
290
     0
176
     1
290
     0
176
     1
290
     0
176
     1
290
     0
176
     1
290
     0
176
     1
290
     0
176
     1
 90
       50
176
     1
 40
0.0
176
     1
 40
1.0
176
     1
 90
        0
176
     1
 62
    18
420
        0
176
     1
 90
       50
176
     1
 90
        3
176
     1
 62
     5
420
      255
176
     1
290
     0
176
     1
 90
       50
176
     1
 90
       50
176
     1
 90
       50
176
     1
290
     0
176
     1
 90
       50
176
     1
 62
   256
176
     0
 40
1.0
176
     0
 90
        2
176
     1
  1
strokes_ogs.tif
176
     1
290
     0
176
     1
 40
1.0
176
     1
 40
1.0
176
     1
  0
VISUALSTYLE
  5
A5
102
{ACAD_REACTORS
330
99
102
}
330
99
100
AcDbVisualStyle
  2
Brighten
 70
    12
177
     3
291
     1
 70
    58
 90
        2
176
     1
 90
        2
176
     1
 90
        1
176
     1
 90
        0
176
     1
 40
-0.6
176
     1
 40
-30.0
176
     1
 62
     7
420
 16777215
176
     1
 90
        1
176
     1
 90
        4
176
     1
 62
     7
176
     1
 62
   257
176
     1
 90
        1
176
     1
 90
        1
176
     1
 40
1.0
176
     1
 90
        8
176
     1
 62
     7
176
     1
 40
1.0
176
     1
 90
        1
176
     1
 90
        6
176
     1
 90
        2
176
     1
 62
     7
176
     1
 90
        5
176
     1
 90
        0
176
     1
 90
        0
176
     1
290
     0
176
     1
 90
        1
176
     1
 40
50.0
176
     1
 90
        0
176
     1
290
     0
176
     1
290
     1
176
     1
290
     1
176
     1
290
     0
176
     1
290
     0
176
     1
290
     0
176
     1
290
     0
176
     1
290
     0
176
     1
290
     0
176
     1
 90
       50
176
     1
 40
0.0
176
     1
 40
1.0
176
     1
 90
        0
176
     1
 62
    18
420
        0
176
     1
 90
       50
176
     1
 90
        3
176
     1
 62
     5
420
      255
176
     1
290
     0
176
     1
 90
       50
176
     1
 90
       50
176
     1
 90
       50
176
     1
290
     0
176
     1
 90
       50
176
     1
 62
   256
176
     0
 40
1.0
176
     0
 90
        2
176
     1
  1
strokes_ogs.tif
176
     1
290
     0
176
     1
 40
1.0
176
     1
 40
1.0
176
     1
  0
VISUALSTYLE
  5
A9
102
{ACAD_REACTORS
330
99
102
}
330
99
100
AcDbVisualStyle
  2
ColorChange
 70
    16
177
     3
291
     1
 70
    58
 90
        2
176
     1
 90
        2
176
     1
 90
        3
176
     1
 90
        0
176
     1
 40
-0.6
176
     1
 40
-30.0
176
     1
 62
     8
420
  8421504
176
     1
 90
        1
176
     1
 90
        4
176
     1
 62
     7
176
     1
 62
   257
176
     1
 90
        1
176
     1
 90
        1
176
     1
 40
1.0
176
     1
 90
        8
176
     1
 62
     8
420
  8421504
176
     1
 40
1.0
176
     1
 90
        1
176
     1
 90
        6
176
     1
 90
        2
176
     1
 62
     7
176
     1
 90
        5
176
     1
 90
        0
176
     1
 90
        0
176
     1
290
     0
176
     1
 90
        1
176
     1
 40
0.0
176
     1
 90
        0
176
     1
290
     0
176
     1
290
     1
176
     1
290
     1
176
     1
290
     0
176
     1
290
     0
176
     1
290
     0
176
     1
290
     0
176
     1
290
     0
176
     1
290
     0
176
     1
 90
       50
176
     1
 40
0.0
176
     1
 40
1.0
176
     1
 90
        0
176
     1
 62
    18
420
        0
176
     1
 90
       50
176
     1
 90
        3
176
     1
 62
     5
420
      255
176
     1
290
     0
176
     1
 90
       50
176
     1
 90
       50
176
     1
 90
       50
176
     1
290
     0
176
     1
 90
       50
176
     1
 62
   256
176
     0
 40
1.0
176
     0
 90
        2
176
     1
  1
strokes_ogs.tif
176
     1
290
     0
176
     1
 40
1.0
176
     1
 40
1.0
176
     1
  0
VISUALSTYLE
  5
A2
102
{ACAD_REACTORS
330
99
102
}
330
99
100
AcDbVisualStyle
  2
Conceptual
 70
     9
177
     3
291
     0
 70
    58
 90
        3
176
     1
 90
        2
176
     1
 90
        1
176
     1
 90
        0
176
     1
 40
-0.6
176
     1
 40
-30.0
176
     1
 62
     7
420
 16777215
176
     1
 90
        2
176
     1
 90
        2
176
     1
 62
     7
176
     1
 62
   257
176
     1
 90
        1
176
     1
 90
        1
176
     1
 40
40.0
176
     1
 90
        8
176
     1
 62
     7
176
     1
 40
1.0
176
     1
 90
        1
176
     1
 90
        6
176
     1
 90
        2
176
     1
 62
     7
176
     1
 90
        3
176
     1
 90
        0
176
     1
 90
        0
176
     1
290
     0
176
     1
 90
        1
176
     1
 40
0.0
176
     1
 90
        0
176
     1
290
     0
176
     1
290
     1
176
     1
290
     1
176
     1
290
     0
176
     1
290
     0
176
     1
290
     0
176
     1
290
     0
176
     1
290
     0
176
     1
290
     0
176
     1
 90
       50
176
     1
 40
0.0
176
     1
 40
1.0
176
     1
 90
        0
176
     1
 62
    18
420
        0
176
     1
 90
       50
176
     1
 90
        3
176
     1
 62
     5
420
      255
176
     1
290
     0
176
     1
 90
       50
176
     1
 90
       50
176
     1
 90
       50
176
     1
290
     0
176
     1
 90
       50
176
     1
 62
   256
176
     0
 40
1.0
176
     0
 90
        2
176
     1
  1
strokes_ogs.tif
176
     1
290
     0
176
     1
 40
1.0
176
     1
 40
1.0
176
     1
  0
VISUALSTYLE
  5
A4
102
{ACAD_REACTORS
330
99
102
}
330
99
100
AcDbVisualStyle
  2
Dim
 70
    11
177
     3
291
     1
 70
    58
 90
        2
176
     1
 90
        2
176
     1
 90
        1
176
     1
 90
        0
176
     1
 40
-0.6
176
     1
 40
-30.0
176
     1
 62
     7
420
 16777215
176
     1
 90
        1
176
     1
 90
        4
176
     1
 62
     7
176
     1
 62
   257
176
     1
 90
        1
176
     1
 90
        1
176
     1
 40
1.0
176
     1
 90
        8
176
     1
 62
     7
176
     1
 40
1.0
176
     1
 90
        1
176
     1
 90
        6
176
     1
 90
        2
176
     1
 62
     7
176
     1
 90
        5
176
     1
 90
        0
176
     1
 90
        0
176
     1
290
     0
176
     1
 90
        1
176
     1
 40
-50.0
176
     1
 90
        0
176
     1
290
     0
176
     1
290
     1
176
     1
290
     1
176
     1
290
     0
176
     1
290
     0
176
     1
290
     0
176
     1
290
     0
176
     1
290
     0
176
     1
290
     0
176
     1
 90
       50
176
     1
 40
0.0
176
     1
 40
1.0
176
     1
 90
        0
176
     1
 62
    18
420
        0
176
     1
 90
       50
176
     1
 90
        3
176
     1
 62
     5
420
      255
176
     1
290
     0
176
     1
 90
       50
176
     1
 90
       50
176
     1
 90
       50
176
     1
290
     0
176
     1
 90
       50
176
     1
 62
   256
176
     0
 40
1.0
176
     0
 90
        2
176
     1
  1
strokes_ogs.tif
176
     1
290
     0
176
     1
 40
1.0
176
     1
 40
1.0
176
     1
  0
VISUALSTYLE
  5
E9
102
{ACAD_REACTORS
330
99
102
}
330
99
100
AcDbVisualStyle
  2
EdgeColorOff
 70
    22
177
     3
291
     1
 70
    58
 90
        2
176
     0
 90
        2
176
     0
 90
        0
176
     0
 90
        0
176
     0
 40
0.6
176
     0
 40
30.0
176
     0
 62
     7
420
 16777215
176
     0
 90
        1
176
     0
 90
        4
176
     0
 62
     7
176
     0
 62
   257
176
     0
 90
        1
176
     0
 90
        1
176
     0
 40
1.0
176
     0
 90
        8
176
     2
 62
     7
176
     0
 40
1.0
176
     0
 90
        1
176
     0
 90
        6
176
     0
 90
        2
176
     0
 62
     7
176
     0
 90
        5
176
     0
 90
        0
176
     0
 90
        0
176
     0
290
     0
176
     0
 90
        1
176
     0
 40
0.0
176
     0
 90
        0
176
     0
290
     0
176
     0
290
     1
176
     0
290
     1
176
     0
290
     0
176
     0
290
     0
176
     0
290
     0
176
     0
290
     0
176
     0
290
     0
176
     0
290
     0
176
     0
 90
       50
176
     0
 40
0.0
176
     0
 40
1.0
176
     0
 90
        0
176
     0
 62
    18
420
        0
176
     0
 90
       50
176
     0
 90
        3
176
     0
 62
     5
420
      255
176
     0
290
     0
176
     0
 90
       50
176
     0
 90
       50
176
     0
 90
       50
176
     0
290
     0
176
     0
 90
       50
176
     0
 62
   256
176
     0
 40
1.0
176
     0
 90
        2
176
     0
  1
strokes_ogs.tif
176
     0
290
     0
176
     0
 40
1.0
176
     0
 40
1.0
176
     0
  0
VISUALSTYLE
  5
A8
102
{ACAD_REACTORS
330
99
102
}
330
99
100
AcDbVisualStyle
  2
Facepattern
 70
    15
177
     3
291
     1
 70
    58
 90
        2
176
     1
 90
        2
176
     1
 90
        1
176
     1
 90
        0
176
     1
 40
-0.6
176
     1
 40
-30.0
176
     1
 62
     7
420
 16777215
176
     1
 90
        1
176
     1
 90
        4
176
     1
 62
     7
176
     1
 62
   257
176
     1
 90
        1
176
     1
 90
        1
176
     1
 40
1.0
176
     1
 90
        8
176
     1
 62
     7
176
     1
 40
1.0
176
     1
 90
        1
176
     1
 90
        6
176
     1
 90
        2
176
     1
 62
     7
176
     1
 90
        5
176
     1
 90
        0
176
     1
 90
        0
176
     1
290
     0
176
     1
 90
        1
176
     1
 40
0.0
176
     1
 90
        0
176
     1
290
     0
176
     1
290
     1
176
     1
290
     1
176
     1
290
     0
176
     1
290
     0
176
     1
290
     0
176
     1
290
     0
176
     1
290
     0
176
     1
290
     0
176
     1
 90
       50
176
     1
 40
0.0
176
     1
 40
1.0
176
     1
 90
        0
176
     1
 62
    18
420
        0
176
     1
 90
       50
176
     1
 90
        3
176
     1
 62
     5
420
      255
176
     1
290
     0
176
     1
 90
       50
176
     1
 90
       50
176
     1
 90
       50
176
     1
290
     0
176
     1
 90
       50
176
     1
 62
   256
176
     0
 40
1.0
176
     0
 90
        2
176
     1
  1
strokes_ogs.tif
176
     1
290
     0
176
     1
 40
1.0
176
     1
 40
1.0
176
     1
  0
VISUALSTYLE
  5
9A
102
{ACAD_REACTORS
330
99
102
}
330
99
100
AcDbVisualStyle
  2
Flat
 70
     0
177
     3
291
     1
 70
    58
 90
        2
176
     1
 90
        1
176
     1
 90
        1
176
     1
 90
        2
176
     1
 40
-0.6
176
     1
 40
30.0
176
     1
 62
     7
420
 16777215
176
     1
 90
        0
176
     1
 90
        4
176
     1
 62
     7
176
     1
 62
   257
176
     1
 90
        1
176
     1
 90
        1
176
     1
 40
1.0
176
     1
 90
        8
176
     1
 62
     7
176
     1
 40
1.0
176
     1
 90
        1
176
     1
 90
        6
176
     1
 90
        2
176
     1
 62
     7
176
     1
 90
        5
176
     1
 90
        0
176
     1
 90
        0
176
     1
290
     0
176
     1
 90
        1
176
     1
 40
0.0
176
     1
 90
        0
176
     1
290
     0
176
     1
290
     1
176
     1
290
     1
176
     1
290
     0
176
     1
290
     0
176
     1
290
     0
176
     1
290
     0
176
     1
290
     0
176
     1
290
     0
176
     1
 90
       50
176
     1
 40
0.0
176
     1
 40
1.0
176
     1
 90
        0
176
     1
 62
    18
420
        0
176
     1
 90
       50
176
     1
 90
        3
176
     1
 62
     5
420
      255
176
     1
290
     0
176
     1
 90
       50
176
     1
 90
       50
176
     1
 90
       50
176
     1
290
     0
176
     1
 90
       50
176
     1
 62
   256
176
     0
 40
1.0
176
     0
 90
        2
176
     1
  1
strokes_ogs.tif
176
     1
290
     0
176
     1
 40
1.0
176
     1
 40
1.0
176
     1
  0
VISUALSTYLE
  5
9B
102
{ACAD_REACTORS
330
99
102
}
330
99
100
AcDbVisualStyle
  2
FlatWithEdges
 70
     1
177
     3
291
     1
 70
    58
 90
        2
176
     1
 90
        1
176
     1
 90
        1
176
     1
 90
        2
176
     1
 40
-0.6
176
     1
 40
30.0
176
     1
 62
     7
420
 16777215
176
     1
 90
        1
176
     1
 90
        4
176
     1
 62
     7
176
     1
 62
   257
176
     1
 90
        1
176
     1
 90
        1
176
     1
 40
1.0
176
     1
 90
        0
176
     1
 62
   257
176
     1
 40
1.0
176
     1
 90
        1
176
     1
 90
        6
176
     1
 90
        2
176
     1
 62
     7
176
     1
 90
        5
176
     1
 90
        0
176
     1
 90
        0
176
     1
290
     0
176
     1
 90
        1
176
     1
 40
0.0
176
     1
 90
        0
176
     1
290
     0
176
     1
290
     1
176
     1
290
     1
176
     1
290
     0
176
     1
290
     0
176
     1
290
     0
176
     1
290
     0
176
     1
290
     0
176
     1
290
     0
176
     1
 90
       50
176
     1
 40
0.0
176
     1
 40
1.0
176
     1
 90
        0
176
     1
 62
    18
420
        0
176
     1
 90
       50
176
     1
 90
        3
176
     1
 62
     5
420
      255
176
     1
290
     0
176
     1
 90
       50
176
     1
 90
       50
176
     1
 90
       50
176
     1
290
     0
176
     1
 90
       50
176
     1
 62
   256
176
     0
 40
1.0
176
     0
 90
        2
176
     1
  1
strokes_ogs.tif
176
     1
290
     0
176
     1
 40
1.0
176
     1
 40
1.0
176
     1
  0
VISUALSTYLE
  5
9C
102
{ACAD_REACTORS
330
99
102
}
330
99
100
AcDbVisualStyle
  2
Gouraud
 70
     2
177
     3
291
     1
 70
    58
 90
        2
176
     1
 90
        2
176
     1
 90
        1
176
     1
 90
        2
176
     1
 40
-0.6
176
     1
 40
30.0
176
     1
 62
     7
420
 16777215
176
     1
 90
        0
176
     1
 90
        4
176
     1
 62
     7
176
     1
 62
   257
176
     1
 90
        1
176
     1
 90
        1
176
     1
 40
1.0
176
     1
 90
        0
176
     1
 62
     7
176
     1
 40
1.0
176
     1
 90
        1
176
     1
 90
        6
176
     1
 90
        2
176
     1
 62
     7
176
     1
 90
        5
176
     1
 90
        0
176
     1
 90
        0
176
     1
290
     0
176
     1
 90
        1
176
     1
 40
0.0
176
     1
 90
        0
176
     1
290
     0
176
     1
290
     1
176
     1
290
     1
176
     1
290
     0
176
     1
290
     0
176
     1
290
     0
176
     1
290
     0
176
     1
290
     0
176
     1
290
     0
176
     1
 90
       50
176
     1
 40
0.0
176
     1
 40
1.0
176
     1
 90
        0
176
     1
 62
    18
420
        0
176
     1
 90
       50
176
     1
 90
        3
176
     1
 62
     5
420
      255
176
     1
290
     0
176
     1
 90
       50
176
     1
 90
       50
176
     1
 90
       50
176
     1
290
     0
176
     1
 90
       50
176
     1
 62
   256
176
     0
 40
1.0
176
     0
 90
        2
176
     1
  1
strokes_ogs.tif
176
     1
290
     0
176
     1
 40
1.0
176
     1
 40
1.0
176
     1
  0
VISUALSTYLE
  5
9D
102
{ACAD_REACTORS
330
99
102
}
330
99
100
AcDbVisualStyle
  2
GouraudWithEdges
 70
     3
177
     3
291
     1
 70
    58
 90
        2
176
     1
 90
        2
176
     1
 90
        1
176
     1
 90
        2
176
     1
 40
-0.6
176
     1
 40
30.0
176
     1
 62
     7
420
 16777215
176
     1
 90
        1
176
     1
 90
        4
176
     1
 62
     7
176
     1
 62
   257
176
     1
 90
        1
176
     1
 90
        1
176
     1
 40
1.0
176
     1
 90
        0
176
     1
 62
   257
176
     1
 40
1.0
176
     1
 90
        1
176
     1
 90
        6
176
     1
 90
        2
176
     1
 62
     7
176
     1
 90
        5
176
     1
 90
        0
176
     1
 90
        0
176
     1
290
     0
176
     1
 90
        1
176
     1
 40
0.0
176
     1
 90
        0
176
     1
290
     0
176
     1
290
     1
176
     1
290
     1
176
     1
290
     0
176
     1
290
     0
176
     1
290
     0
176
     1
290
     0
176
     1
290
     0
176
     1
290
     0
176
     1
 90
       50
176
     1
 40
0.0
176
     1
 40
1.0
176
     1
 90
        0
176
     1
 62
    18
420
        0
176
     1
 90
       50
176
     1
 90
        3
176
     1
 62
     5
420
      255
176
     1
290
     0
176
     1
 90
       50
176
     1
 90
       50
176
     1
 90
       50
176
     1
290
     0
176
     1
 90
       50
176
     1
 62
   256
176
     0
 40
1.0
176
     0
 90
        2
176
     1
  1
strokes_ogs.tif
176
     1
290
     0
176
     1
 40
1.0
176
     1
 40
1.0
176
     1
  0
VISUALSTYLE
  5
E6
102
{ACAD_REACTORS
330
99
102
}
330
99
100
AcDbVisualStyle
  2
Hidden
 70
     6
177
     3
291
     0
 70
    58
 90
        1
176
     1
 90
        2
176
     1
 90
        2
176
     1
 90
        0
176
     1
 40
0.6
176
     1
 40
30.0
176
     1
 62
     7
420
 16777215
176
     1
 90
        2
176
     1
 90
        2
176
     1
 62
     7
176
     1
 62
   257
176
     1
 90
        2
176
     1
 90
        1
176
     1
 40
40.0
176
     1
 90
        0
176
     1
 62
   257
176
     1
 40
1.0
176
     1
 90
        1
176
     1
 90
        6
176
     1
 90
        2
176
     1
 62
     7
176
     1
 90
        3
176
     1
 90
        0
176
     1
 90
        0
176
     1
290
     0
176
     1
 90
        1
176
     1
 40
0.0
176
     1
 90
        0
176
     1
290
     0
176
     1
290
     1
176
     1
290
     1
176
     1
290
     0
176
     1
290
     0
176
     1
290
     0
176
     1
290
     0
176
     1
290
     0
176
     1
290
     0
176
     1
 90
       50
176
     1
 40
0.0
176
     1
 40
1.0
176
     1
 90
        0
176
     1
 62
    18
420
        0
176
     1
 90
       50
176
     1
 90
        3
176
     1
 62
     5
420
      255
176
     1
290
     0
176
     1
 90
       50
176
     1
 90
       50
176
     1
 90
       50
176
     1
290
     0
176
     1
 90
       50
176
     1
 62
   256
176
     0
 40
1.0
176
     0
 90
        2
176
     1
  1
strokes_ogs.tif
176
     1
290
     0
176
     1
 40
1.0
176
     1
 40
1.0
176
     1
  0
VISUALSTYLE
  5
E7
102
{ACAD_REACTORS
330
99
102
}
330
99
100
AcDbVisualStyle
  2
JitterOff
 70
    20
177
     3
291
     1
 70
    58
 90
        2
176
     0
 90
        2
176
     0
 90
        0
176
     0
 90
        0
176
     0
 40
0.6
176
     0
 40
30.0
176
     0
 62
     7
420
 16777215
176
     0
 90
        1
176
     0
 90
        4
176
     0
 62
     7
176
     0
 62
   257
176
     0
 90
        1
176
     0
 90
        1
176
     0
 40
1.0
176
     0
 90
       10
176
     2
 62
     7
176
     0
 40
1.0
176
     0
 90
        1
176
     0
 90
        6
176
     0
 90
        2
176
     0
 62
     7
176
     0
 90
        5
176
     0
 90
        0
176
     0
 90
        0
176
     0
290
     0
176
     0
 90
        1
176
     0
 40
0.0
176
     0
 90
        0
176
     0
290
     0
176
     0
290
     1
176
     0
290
     1
176
     0
290
     0
176
     0
290
     0
176
     0
290
     0
176
     0
290
     0
176
     0
290
     0
176
     0
290
     0
176
     0
 90
       50
176
     0
 40
0.0
176
     0
 40
1.0
176
     0
 90
        0
176
     0
 62
    18
420
        0
176
     0
 90
       50
176
     0
 90
        3
176
     0
 62
     5
420
      255
176
     0
290
     0
176
     0
 90
       50
176
     0
 90
       50
176
     0
 90
       50
176
     0
290
     0
176
     0
 90
       50
176
     0
 62
   256
176
     0
 40
1.0
176
     0
 90
        2
176
     0
  1
strokes_ogs.tif
176
     0
290
     0
176
     0
 40
1.0
176
     0
 40
1.0
176
     0
  0
VISUALSTYLE
  5
A7
102
{ACAD_REACTORS
330
99
102
}
330
99
100
AcDbVisualStyle
  2
Linepattern
 70
    14
177
     3
291
     1
 70
    58
 90
        2
176
     1
 90
        2
176
     1
 90
        1
176
     1
 90
        0
176
     1
 40
-0.6
176
     1
 40
-30.0
176
     1
 62
     7
420
 16777215
176
     1
 90
        1
176
     1
 90
        4
176
     1
 62
     7
176
     1
 62
   257
176
     1
 90
        7
176
     1
 90
        7
176
     1
 40
1.0
176
     1
 90
        8
176
     1
 62
     7
176
     1
 40
1.0
176
     1
 90
        1
176
     1
 90
        6
176
     1
 90
        2
176
     1
 62
     7
176
     1
 90
        5
176
     1
 90
        0
176
     1
 90
        0
176
     1
290
     0
176
     1
 90
        1
176
     1
 40
0.0
176
     1
 90
        0
176
     1
290
     0
176
     1
290
     1
176
     1
290
     1
176
     1
290
     0
176
     1
290
     0
176
     1
290
     0
176
     1
290
     0
176
     1
290
     0
176
     1
290
     0
176
     1
 90
       50
176
     1
 40
0.0
176
     1
 40
1.0
176
     1
 90
        0
176
     1
 62
    18
420
        0
176
     1
 90
       50
176
     1
 90
        3
176
     1
 62
     5
420
      255
176
     1
290
     0
176
     1
 90
       50
176
     1
 90
       50
176
     1
 90
       50
176
     1
290
     0
176
     1
 90
       50
176
     1
 62
   256
176
     0
 40
1.0
176
     0
 90
        2
176
     1
  1
strokes_ogs.tif
176
     1
290
     0
176
     1
 40
1.0
176
     1
 40
1.0
176
     1
  0
VISUALSTYLE
  5
E8
102
{ACAD_REACTORS
330
99
102
}
330
99
100
AcDbVisualStyle
  2
OverhangOff
 70
    21
177
     3
291
     1
 70
    58
 90
        2
176
     0
 90
        2
176
     0
 90
        0
176
     0
 90
        0
176
     0
 40
0.6
176
     0
 40
30.0
176
     0
 62
     7
420
 16777215
176
     0
 90
        1
176
     0
 90
        4
176
     0
 62
     7
176
     0
 62
   257
176
     0
 90
        1
176
     0
 90
        1
176
     0
 40
1.0
176
     0
 90
        9
176
     2
 62
     7
176
     0
 40
1.0
176
     0
 90
        1
176
     0
 90
        6
176
     0
 90
        2
176
     0
 62
     7
176
     0
 90
        5
176
     0
 90
        0
176
     0
 90
        0
176
     0
290
     0
176
     0
 90
        1
176
     0
 40
0.0
176
     0
 90
        0
176
     0
290
     0
176
     0
290
     1
176
     0
290
     1
176
     0
290
     0
176
     0
290
     0
176
     0
290
     0
176
     0
290
     0
176
     0
290
     0
176
     0
290
     0
176
     0
 90
       50
176
     0
 40
0.0
176
     0
 40
1.0
176
     0
 90
        0
176
     0
 62
    18
420
        0
176
     0
 90
       50
176
     0
 90
        3
176
     0
 62
     5
420
      255
176
     0
290
     0
176
     0
 90
       50
176
     0
 90
       50
176
     0
 90
       50
176
     0
290
     0
176
     0
 90
       50
176
     0
 62
   256
176
     0
 40
1.0
176
     0
 90
        2
176
     0
  1
strokes_ogs.tif
176
     0
290
     0
176
     0
 40
1.0
176
     0
 40
1.0
176
     0
  0
VISUALSTYLE
  5
A3
102
{ACAD_REACTORS
330
99
102
}
330
99
100
AcDbVisualStyle
  2
Realistic
 70
     8
177
     3
291
     0
 70
    58
 90
        2
176
     1
 90
        2
176
     1
 90
        1
176
     1
 90
        0
176
     1
 40
-0.6
176
     1
 40
-30.0
176
     1
 62
     7
420
 16777215
176
     1
 90
        1
176
     1
 90
        0
176
     1
 62
     7
176
     1
 62
   257
176
     1
 90
        1
176
     1
 90
        1
176
     1
 40
1.0
176
     1
 90
        8
176
     1
 62
     8
420
  7895160
176
     1
 40
1.0
176
     1
 90
        1
176
     1
 90
        6
176
     1
 90
        2
176
     1
 62
     7
176
     1
 90
        5
176
     1
 90
        0
176
     1
 90
        0
176
     1
290
     0
176
     1
 90
       13
176
     1
 40
0.0
176
     1
 90
        0
176
     1
290
     0
176
     1
290
     1
176
     1
290
     1
176
     1
290
     0
176
     1
290
     0
176
     1
290
     0
176
     1
290
     0
176
     1
290
     0
176
     1
290
     0
176
     1
 90
       50
176
     1
 40
0.0
176
     1
 40
1.0
176
     1
 90
        0
176
     1
 62
    18
420
        0
176
     1
 90
       50
176
     1
 90
        3
176
     1
 62
     5
420
      255
176
     1
290
     0
176
     1
 90
       50
176
     1
 90
       50
176
     1
 90
       50
176
     1
290
     0
176
     1
 90
       50
176
     1
 62
   256
176
     0
 40
1.0
176
     0
 90
        2
176
     1
  1
strokes_ogs.tif
176
     1
290
     0
176
     1
 40
1.0
176
     1
 40
1.0
176
     1
  0
VISUALSTYLE
  5
EE
102
{ACAD_REACTORS
330
99
102
}
330
99
100
AcDbVisualStyle
  2
Shaded
 70
    27
177
     3
291
     0
 70
    58
 90
        2
176
     1
 90
        2
176
     1
 90
        1
176
     1
 90
        2
176
     1
 40
0.6
176
     1
 40
30.0
176
     1
 62
     7
420
 16777215
176
     1
 90
        0
176
     1
 90
        4
176
     1
 62
     7
176
     1
 62
   257
176
     1
 90
        1
176
     1
 90
        1
176
     1
 40
1.0
176
     1
 90
        8
176
     1
 62
   257
176
     1
 40
1.0
176
     1
 90
        1
176
     1
 90
        6
176
     1
 90
        2
176
     1
 62
     8
420
  7895160
176
     1
 90
        3
176
     1
 90
        0
176
     1
 90
        0
176
     1
290
     0
176
     1
 90
        5
176
     1
 40
0.0
176
     1
 90
        0
176
     1
290
     0
176
     1
290
     1
176
     1
290
     1
176
     1
290
     0
176
     1
290
     0
176
     1
290
     0
176
     1
290
     0
176
     1
290
     0
176
     1
290
     0
176
     1
 90
       50
176
     1
 40
0.0
176
     1
 40
1.0
176
     1
 90
        0
176
     1
 62
    18
420
        0
176
     1
 90
       50
176
     1
 90
        3
176
     1
 62
     5
420
      255
176
     1
290
     0
176
     1
 90
       50
176
     1
 90
       50
176
     1
 90
       50
176
     1
290
     0
176
     1
 90
       50
176
     1
 62
   256
176
     0
 40
1.0
176
     0
 90
        2
176
     1
  1
strokes_ogs.tif
176
     1
290
     0
176
     1
 40
1.0
176
     1
 40
1.0
176
     1
  0
VISUALSTYLE
  5
ED
102
{ACAD_REACTORS
330
99
102
}
330
99
100
AcDbVisualStyle
  2
Shaded with edges
 70
    26
177
     3
291
     0
 70
    58
 90
        2
176
     1
 90
        2
176
     1
 90
        1
176
     1
 90
        2
176
     1
 40
0.6
176
     1
 40
30.0
176
     1
 62
     7
420
 16777215
176
     1
 90
        1
176
     1
 90
       10
176
     1
 62
     7
176
     1
 62
   257
176
     1
 90
        2
176
     1
 90
        1
176
     1
 40
1.0
176
     1
 90
        8
176
     1
 62
   257
176
     1
 40
1.0
176
     1
 90
        1
176
     1
 90
        6
176
     1
 90
        2
176
     1
 62
     7
176
     1
 90
        3
176
     1
 90
        0
176
     1
 90
        0
176
     1
290
     0
176
     1
 90
        5
176
     1
 40
0.0
176
     1
 90
        0
176
     1
290
     0
176
     1
290
     1
176
     1
290
     1
176
     1
290
     0
176
     1
290
     0
176
     1
290
     0
176
     1
290
     0
176
     1
290
     0
176
     1
290
     0
176
     1
 90
       50
176
     1
 40
0.0
176
     1
 40
1.0
176
     1
 90
        0
176
     1
 62
    18
420
        0
176
     1
 90
       50
176
     1
 90
        3
176
     1
 62
     5
420
      255
176
     1
290
     0
176
     1
 90
       50
176
     1
 90
       50
176
     1
 90
       50
176
     1
290
     0
176
     1
 90
       50
176
     1
 62
   256
176
     0
 40
1.0
176
     0
 90
        2
176
     1
  1
strokes_ogs.tif
176
     1
290
     0
176
     1
 40
1.0
176
     1
 40
1.0
176
     1
  0
VISUALSTYLE
  5
EA
102
{ACAD_REACTORS
330
99
102
}
330
99
100
AcDbVisualStyle
  2
Shades of Gray
 70
    23
177
     3
291
     0
 70
    58
 90
        2
176
     1
 90
        2
176
     1
 90
        3
176
     1
 90
        0
176
     1
 40
0.6
176
     1
 40
30.0
176
     1
 62
     7
420
 16777215
176
     1
 90
        2
176
     1
 90
        2
176
     1
 62
     7
176
     1
 62
     7
176
     1
 90
        1
176
     1
 90
        1
176
     1
 40
40.0
176
     1
 90
        8
176
     1
 62
     7
176
     1
 40
1.0
176
     1
 90
        1
176
     1
 90
        6
176
     1
 90
        2
176
     1
 62
     7
176
     1
 90
        3
176
     1
 90
        0
176
     1
 90
        0
176
     1
290
     0
176
     1
 90
        1
176
     1
 40
0.0
176
     1
 90
        0
176
     1
290
     0
176
     1
290
     1
176
     1
290
     1
176
     1
290
     0
176
     1
290
     0
176
     1
290
     0
176
     1
290
     0
176
     1
290
     0
176
     1
290
     0
176
     1
 90
       50
176
     1
 40
0.0
176
     1
 40
1.0
176
     1
 90
        0
176
     1
 62
    18
420
        0
176
     1
 90
       50
176
     1
 90
        3
176
     1
 62
     5
420
      255
176
     1
290
     0
176
     1
 90
       50
176
     1
 90
       50
176
     1
 90
       50
176
     1
290
     0
176
     1
 90
       50
176
     1
 62
   256
176
     0
 40
1.0
176
     0
 90
        2
176
     1
  1
strokes_ogs.tif
176
     1
290
     0
176
     1
 40
1.0
176
     1
 40
1.0
176
     1
  0
VISUALSTYLE
  5
EB
102
{ACAD_REACTORS
330
99
102
}
330
99
100
AcDbVisualStyle
  2
Sketchy
 70
    24
177
     3
291
     0
 70
    58
 90
        1
176
     1
 90
        2
176
     1
 90
        2
176
     1
 90
        0
176
     1
 40
0.6
176
     1
 40
30.0
176
     1
 62
     7
420
 16777215
176
     1
 90
        2
176
     1
 90
        2
176
     1
 62
     7
176
     1
 62
     7
176
     1
 90
        1
176
     1
 90
        1
176
     1
 40
40.0
176
     1
 90
       11
176
     1
 62
     7
176
     1
 40
1.0
176
     1
 90
        1
176
     1
 90
        6
176
     1
 90
        2
176
     1
 62
     7
176
     1
 90
        6
176
     1
 90
        0
176
     1
 90
        0
176
     1
290
     0
176
     1
 90
        1
176
     1
 40
0.0
176
     1
 90
        0
176
     1
290
     0
176
     1
290
     1
176
     1
290
     1
176
     1
290
     0
176
     1
290
     0
176
     1
290
     0
176
     1
290
     0
176
     1
290
     0
176
     1
290
     0
176
     1
 90
       50
176
     1
 40
0.0
176
     1
 40
1.0
176
     1
 90
        0
176
     1
 62
    18
420
        0
176
     1
 90
       50
176
     1
 90
        3
176
     1
 62
     5
420
      255
176
     1
290
     0
176
     1
 90
       50
176
     1
 90
       50
176
     1
 90
       50
176
     1
290
     0
176
     1
 90
       50
176
     1
 62
   256
176
     0
 40
1.0
176
     0
 90
        2
176
     1
  1
strokes_ogs.tif
176
     1
290
     0
176
     1
 40
1.0
176
     1
 40
1.0
176
     1
  0
VISUALSTYLE
  5
A6
102
{ACAD_REACTORS
330
99
102
}
330
99
100
AcDbVisualStyle
  2
Thicken
 70
    13
177
     3
291
     1
 70
    58
 90
        2
176
     1
 90
        2
176
     1
 90
        1
176
     1
 90
        0
176
     1
 40
-0.6
176
     1
 40
-30.0
176
     1
 62
     7
420
 16777215
176
     1
 90
        1
176
     1
 90
        4
176
     1
 62
     7
176
     1
 62
   257
176
     1
 90
        1
176
     1
 90
        1
176
     1
 40
1.0
176
     1
 90
       12
176
     1
 62
     7
176
     1
 40
1.0
176
     1
 90
        1
176
     1
 90
        6
176
     1
 90
        2
176
     1
 62
     7
176
     1
 90
        5
176
     1
 90
        0
176
     1
 90
        0
176
     1
290
     0
176
     1
 90
        1
176
     1
 40
0.0
176
     1
 90
        0
176
     1
290
     0
176
     1
290
     1
176
     1
290
     1
176
     1
290
     0
176
     1
290
     0
176
     1
290
     0
176
     1
290
     0
176
     1
290
     0
176
     1
290
     0
176
     1
 90
       50
176
     1
 40
0.0
176
     1
 40
1.0
176
     1
 90
        0
176
     1
 62
    18
420
        0
176
     1
 90
       50
176
     1
 90
        3
176
     1
 62
     5
420
      255
176
     1
290
     0
176
     1
 90
       50
176
     1
 90
       50
176
     1
 90
       50
176
     1
290
     0
176
     1
 90
       50
176
     1
 62
   256
176
     0
 40
1.0
176
     0
 90
        2
176
     1
  1
strokes_ogs.tif
176
     1
290
     0
176
     1
 40
1.0
176
     1
 40
1.0
176
     1
  0
VISUALSTYLE
  5
E5
102
{ACAD_REACTORS
330
99
102
}
330
99
100
AcDbVisualStyle
  2
Wireframe
 70
     5
177
     3
291
     0
 70
    58
 90
        0
176
     1
 90
        2
176
     1
 90
        0
176
     1
 90
        0
176
     1
 40
0.6
176
     1
 40
30.0
176
     1
 62
     7
420
 16777215
176
     1
 90
        1
176
     1
 90
        4
176
     1
 62
     7
176
     1
 62
   257
176
     1
 90
        1
176
     1
 90
        1
176
     1
 40
1.0
176
     1
 90
        0
176
     1
 62
   257
176
     1
 40
1.0
176
     1
 90
        1
176
     1
 90
        6
176
     1
 90
        2
176
     1
 62
     7
176
     1
 90
        3
176
     1
 90
        0
176
     1
 90
        0
176
     1
290
     0
176
     1
 90
        1
176
     1
 40
0.0
176
     1
 90
        0
176
     1
290
     0
176
     1
290
     1
176
     1
290
     1
176
     1
290
     0
176
     1
290
     0
176
     1
290
     0
176
     1
290
     0
176
     1
290
     0
176
     1
290
     0
176
     1
 90
       50
176
     1
 40
0.0
176
     1
 40
1.0
176
     1
 90
        0
176
     1
 62
    18
420
        0
176
     1
 90
       50
176
     1
 90
        3
176
     1
 62
     5
420
      255
176
     1
290
     0
176
     1
 90
       50
176
     1
 90
       50
176
     1
 90
       50
176
     1
290
     0
176
     1
 90
       50
176
     1
 62
   256
176
     0
 40
1.0
176
     0
 90
        2
176
     1
  1
strokes_ogs.tif
176
     1
290
     0
176
     1
 40
1.0
176
     1
 40
1.0
176
     1
  0
VISUALSTYLE
  5
EC
102
{ACAD_REACTORS
330
99
102
}
330
99
100
AcDbVisualStyle
  2
X-Ray
 70
    25
177
     3
291
     0
 70
    58
 90
        2
176
     1
 90
        2
176
     1
 90
        1
176
     1
 90
        1
176
     1
 40
0.5
176
     1
 40
30.0
176
     1
 62
     7
420
 16777215
176
     1
 90
        1
176
     1
 90
        0
176
     1
 62
     7
176
     1
 62
   257
176
     1
 90
        1
176
     1
 90
        1
176
     1
 40
1.0
176
     1
 90
        8
176
     1
 62
     7
176
     1
 40
1.0
176
     1
 90
        1
176
     1
 90
        6
176
     1
 90
        2
176
     1
 62
     7
176
     1
 90
        3
176
     1
 90
        0
176
     1
 90
        0
176
     1
290
     0
176
     1
 90
       13
176
     1
 40
0.0
176
     1
 90
        0
176
     1
290
     0
176
     1
290
     1
176
     1
290
     1
176
     1
290
     0
176
     1
290
     0
176
     1
290
     0
176
     1
290
     0
176
     1
290
     0
176
     1
290
     0
176
     1
 90
       50
176
     1
 40
0.0
176
     1
 40
1.0
176
     1
 90
        0
176
     1
 62
    18
420
        0
176
     1
 90
       50
176
     1
 90
        3
176
     1
 62
     5
420
      255
176
     1
290
     0
176
     1
 90
       50
176
     1
 90
       50
176
     1
 90
       50
176
     1
290
     0
176
     1
 90
       50
176
     1
 62
   256
176
     0
 40
1.0
176
     0
 90
        2
176
     1
  1
strokes_ogs.tif
176
     1
290
     0
176
     1
 40
1.0
176
     1
 40
1.0
176
     1
  0
DICTIONARYVAR
  5
D8
102
{ACAD_REACTORS
330
66
102
}
330
66
100
DictionaryVariables
280
     0
  1
1:1
  0
DICTIONARYVAR
  5
12A
102
{ACAD_REACTORS
330
66
102
}
330
66
100
DictionaryVariables
280
     0
  1
Standard
  0
DICTIONARYVAR
  5
89
102
{ACAD_REACTORS
330
66
102
}
330
66
100
DictionaryVariables
280
     0
  1
Standard
  0
DICTIONARYVAR
  5
67
102
{ACAD_REACTORS
330
66
102
}
330
66
100
DictionaryVariables
280
     0
  1
2
  0
DICTIONARYVAR
  5
6B
102
{ACAD_REACTORS
330
66
102
}
330
66
100
DictionaryVariables
280
     0
  1
1
  0
DICTIONARYVAR
  5
DF
102
{ACAD_REACTORS
330
66
102
}
330
66
100
DictionaryVariables
280
     0
  1
0
  0
DICTIONARYVAR
  5
E0
102
{ACAD_REACTORS
330
66
102
}
330
66
100
DictionaryVariables
280
     0
  1
0
  0
DICTIONARY
  5
4EC
330
87
100
AcDbDictionary
280
     1
281
     1
  3
ACAD_ROUNDTRIP_2008_TABLESTYLE_CELLSTYLEMAP
360
4ED
  0
CELLSTYLEMAP
  5
4ED
102
{ACAD_REACTORS
330
4EC
102
}
330
4EC
100
AcDbCellStyleMap
 90
        3
300
CELLSTYLE
  1
TABLEFORMAT_BEGIN
 90
        5
170
     1
 91
        0
 92
    32768
 62
   257
 93
        1
300
CONTENTFORMAT
  1
CONTENTFORMAT_BEGIN
 90
        0
 91
        0
 92
      512
 93
        0
300

 40
0.0
140
1.0
 94
        5
 62
     0
340
11
144
0.25
309
CONTENTFORMAT_END
171
     0
 94
        6
 95
        1
302
GRIDFORMAT
  1
GRIDFORMAT_BEGIN
 90
        0
 91
        1
 62
     0
 92
       -2
340
0
 93
        0
 40
0.045
309
GRIDFORMAT_END
 95
        2
302
GRIDFORMAT
  1
GRIDFORMAT_BEGIN
 90
        0
 91
        1
 62
     0
 92
       -2
340
0
 93
        0
 40
0.045
309
GRIDFORMAT_END
 95
        4
302
GRIDFORMAT
  1
GRIDFORMAT_BEGIN
 90
        0
 91
        1
 62
     0
 92
       -2
340
0
 93
        0
 40
0.045
309
GRIDFORMAT_END
 95
        8
302
GRIDFORMAT
  1
GRIDFORMAT_BEGIN
 90
        0
 91
        1
 62
     0
 92
       -2
340
0
 93
        0
 40
0.045
309
GRIDFORMAT_END
 95
       16
302
GRIDFORMAT
  1
GRIDFORMAT_BEGIN
 90
        0
 91
        1
 62
     0
 92
       -2
340
0
 93
        0
 40
0.045
309
GRIDFORMAT_END
 95
       32
302
GRIDFORMAT
  1
GRIDFORMAT_BEGIN
 90
        0
 91
        1
 62
     0
 92
       -2
340
0
 93
        0
 40
0.045
309
GRIDFORMAT_END
309
TABLEFORMAT_END
  1
CELLSTYLE_BEGIN
 90
        1
 91
        1
300
_TITLE
309
CELLSTYLE_END
300
CELLSTYLE
  1
TABLEFORMAT_BEGIN
 90
        5
170
     1
 91
        0
 92
        0
 62
   257
 93
        1
300
CONTENTFORMAT
  1
CONTENTFORMAT_BEGIN
 90
        0
 91
        0
 92
      512
 93
        0
300

 40
0.0
140
1.0
 94
        5
 62
     0
340
11
144
0.18
309
CONTENTFORMAT_END
171
     0
 94
        6
 95
        1
302
GRIDFORMAT
  1
GRIDFORMAT_BEGIN
 90
        0
 91
        1
 62
     0
 92
       -2
340
0
 93
        0
 40
0.045
309
GRIDFORMAT_END
 95
        2
302
GRIDFORMAT
  1
GRIDFORMAT_BEGIN
 90
        0
 91
        1
 62
     0
 92
       -2
340
0
 93
        0
 40
0.045
309
GRIDFORMAT_END
 95
        4
302
GRIDFORMAT
  1
GRIDFORMAT_BEGIN
 90
        0
 91
        1
 62
     0
 92
       -2
340
0
 93
        0
 40
0.045
309
GRIDFORMAT_END
 95
        8
302
GRIDFORMAT
  1
GRIDFORMAT_BEGIN
 90
        0
 91
        1
 62
     0
 92
       -2
340
0
 93
        0
 40
0.045
309
GRIDFORMAT_END
 95
       16
302
GRIDFORMAT
  1
GRIDFORMAT_BEGIN
 90
        0
 91
        1
 62
     0
 92
       -2
340
0
 93
        0
 40
0.045
309
GRIDFORMAT_END
 95
       32
302
GRIDFORMAT
  1
GRIDFORMAT_BEGIN
 90
        0
 91
        1
 62
     0
 92
       -2
340
0
 93
        0
 40
0.045
309
GRIDFORMAT_END
309
TABLEFORMAT_END
  1
CELLSTYLE_BEGIN
 90
        2
 91
        1
300
_HEADER
309
CELLSTYLE_END
300
CELLSTYLE
  1
TABLEFORMAT_BEGIN
 90
        5
170
     1
 91
        0
 92
        0
 62
   257
 93
        1
300
CONTENTFORMAT
  1
CONTENTFORMAT_BEGIN
 90
        0
 91
        0
 92
      512
 93
        0
300

 40
0.0
140
1.0
 94
        2
 62
     0
340
11
144
0.18
309
CONTENTFORMAT_END
171
     0
 94
        6
 95
        1
302
GRIDFORMAT
  1
GRIDFORMAT_BEGIN
 90
        0
 91
        1
 62
     0
 92
       -2
340
0
 93
        0
 40
0.045
309
GRIDFORMAT_END
 95
        2
302
GRIDFORMAT
  1
GRIDFORMAT_BEGIN
 90
        0
 91
        1
 62
     0
 92
       -2
340
0
 93
        0
 40
0.045
309
GRIDFORMAT_END
 95
        4
302
GRIDFORMAT
  1
GRIDFORMAT_BEGIN
 90
        0
 91
        1
 62
     0
 92
       -2
340
0
 93
        0
 40
0.045
309
GRIDFORMAT_END
 95
        8
302
GRIDFORMAT
  1
GRIDFORMAT_BEGIN
 90
        0
 91
        1
 62
     0
 92
       -2
340
0
 93
        0
 40
0.045
309
GRIDFORMAT_END
 95
       16
302
GRIDFORMAT
  1
GRIDFORMAT_BEGIN
 90
        0
 91
        1
 62
     0
 92
       -2
340
0
 93
        0
 40
0.045
309
GRIDFORMAT_END
 95
       32
302
GRIDFORMAT
  1
GRIDFORMAT_BEGIN
 90
        0
 91
        1
 62
     0
 92
       -2
340
0
 93
        0
 40
0.045
309
GRIDFORMAT_END
309
TABLEFORMAT_END
  1
CELLSTYLE_BEGIN
 90
        3
 91
        2
300
_DATA
309
CELLSTYLE_END
  0
ENDSEC
  0
EOF
