  0
SECTION
  2
HEADER
  9
$ACADVER
  1
AC1032
  9
$ACADMAINTVER
 90
       55
  9
$DWGCODEPAGE
  3
ANSI_1252
  9
$LASTSAVEDBY
  1
Kinzel Wood Products
  9
$REQUIREDVERSIONS
160
                 0
  9
$INSBASE
 10
0.0
 20
0.0
 30
0.0
  9
$EXTMIN
 10
-0.0000000000000009
 20
0.0
 30
0.0
  9
$EXTMAX
 10
26.75000000000001
 20
42.00045794926591
 30
0.0
  9
$LIMMIN
 10
0.0
 20
0.0
  9
$LIMMAX
 10
12.0
 20
9.0
  9
$ORTHOMODE
 70
     1
  9
$REGENMODE
 70
     1
  9
$FILLMODE
 70
     1
  9
$QTEXTMODE
 70
     0
  9
$MIRRTEXT
 70
     0
  9
$LTSCALE
 40
1.0
  9
$ATTMODE
 70
     1
  9
$TEXTSIZE
 40
0.2
  9
$TRACEWID
 40
0.05
  9
$TEXTSTYLE
  7
Standard
  9
$CLAYER
  8
0
  9
$CELTYPE
  6
ByLayer
  9
$CECOLOR
 62
   256
  9
$CELTSCALE
 40
1.0
  9
$DISPSILH
 70
     0
  9
$DIMSCALE
 40
1.0
  9
$DIMASZ
 40
0.18
  9
$DIMEXO
 40
0.0625
  9
$DIMDLI
 40
0.38
  9
$DIMRND
 40
0.0
  9
$DIMDLE
 40
0.0
  9
$DIMEXE
 40
0.18
  9
$DIMTP
 40
0.0
  9
$DIMTM
 40
0.0
  9
$DIMTXT
 40
0.18
  9
$DIMCEN
 40
0.09
  9
$DIMTSZ
 40
0.0
  9
$DIMTOL
 70
     0
  9
$DIMLIM
 70
     0
  9
$DIMTIH
 70
     1
  9
$DIMTOH
 70
     1
  9
$DIMSE1
 70
     0
  9
$DIMSE2
 70
     0
  9
$DIMTAD
 70
     0
  9
$DIMZIN
 70
     0
  9
$DIMBLK
  1

  9
$DIMASO
 70
     1
  9
$DIMSHO
 70
     1
  9
$DIMPOST
  1

  9
$DIMAPOST
  1

  9
$DIMALT
 70
     0
  9
$DIMALTD
 70
     2
  9
$DIMALTF
 40
25.4
  9
$DIMLFAC
 40
1.0
  9
$DIMTOFL
 70
     0
  9
$DIMTVP
 40
0.0
  9
$DIMTIX
 70
     0
  9
$DIMSOXD
 70
     0
  9
$DIMSAH
 70
     0
  9
$DIMBLK1
  1

  9
$DIMBLK2
  1

  9
$DIMSTYLE
  2
Standard
  9
$DIMCLRD
 70
     0
  9
$DIMCLRE
 70
     0
  9
$DIMCLRT
 70
     0
  9
$DIMTFAC
 40
1.0
  9
$DIMGAP
 40
0.09
  9
$DIMJUST
 70
     0
  9
$DIMSD1
 70
     0
  9
$DIMSD2
 70
     0
  9
$DIMTOLJ
 70
     1
  9
$DIMTZIN
 70
     0
  9
$DIMALTZ
 70
     0
  9
$DIMALTTZ
 70
     0
  9
$DIMUPT
 70
     0
  9
$DIMDEC
 70
     4
  9
$DIMTDEC
 70
     4
  9
$DIMALTU
 70
     2
  9
$DIMALTTD
 70
     2
  9
$DIMTXSTY
  7
Standard
  9
$DIMAUNIT
 70
     0
  9
$DIMADEC
 70
     0
  9
$DIMALTRND
 40
0.0
  9
$DIMAZIN
 70
     0
  9
$DIMDSEP
 70
    46
  9
$DIMATFIT
 70
     3
  9
$DIMFRAC
 70
     0
  9
$DIMLDRBLK
  1

  9
$DIMLUNIT
 70
     2
  9
$DIMLWD
 70
    -2
  9
$DIMLWE
 70
    -2
  9
$DIMTMOVE
 70
     0
  9
$DIMFXL
 40
1.0
  9
$DIMFXLON
 70
     0
  9
$DIMJOGANG
 40
0.7853981633974483
  9
$DIMTFILL
 70
     0
  9
$DIMTFILLCLR
 70
     0
  9
$DIMARCSYM
 70
     0
  9
$DIMLTYPE
  6

  9
$DIMLTEX1
  6

  9
$DIMLTEX2
  6

  9
$DIMTXTDIRECTION
 70
     0
  9
$LUNITS
 70
     2
  9
$LUPREC
 70
     4
  9
$SKETCHINC
 40
0.1
  9
$FILLETRAD
 40
0.0
  9
$AUNITS
 70
     0
  9
$AUPREC
 70
     0
  9
$MENU
  1
.
  9
$ELEVATION
 40
0.0
  9
$PELEVATION
 40
0.0
  9
$THICKNESS
 40
0.0
  9
$LIMCHECK
 70
     0
  9
$CHAMFERA
 40
0.0
  9
$CHAMFERB
 40
0.0
  9
$CHAMFERC
 40
0.0
  9
$CHAMFERD
 40
0.0
  9
$SKPOLY
 70
     0
  9
$TDCREATE
 40
2452642.855050937
  9
$TDUCREATE
 40
2452643.063384271
  9
$TDUPDATE
 40
2460102.609337604
  9
$TDUUPDATE
 40
2460102.817670938
  9
$TDINDWG
 40
0.0026122801
  9
$TDUSRTIMER
 40
0.0026125231
  9
$USRTIMER
 70
     1
  9
$ANGBASE
 50
0.0
  9
$ANGDIR
 70
     0
  9
$PDMODE
 70
     0
  9
$PDSIZE
 40
0.0
  9
$PLINEWID
 40
0.0
  9
$SPLFRAME
 70
     0
  9
$SPLINETYPE
 70
     6
  9
$SPLINESEGS
 70
     8
  9
$HANDSEED
  5
66C
  9
$SURFTAB1
 70
     6
  9
$SURFTAB2
 70
     6
  9
$SURFTYPE
 70
     6
  9
$SURFU
 70
     6
  9
$SURFV
 70
     6
  9
$UCSBASE
  2

  9
$UCSNAME
  2

  9
$UCSORG
 10
0.0
 20
0.0
 30
0.0
  9
$UCSXDIR
 10
1.0
 20
0.0
 30
0.0
  9
$UCSYDIR
 10
0.0
 20
1.0
 30
0.0
  9
$UCSORTHOREF
  2

  9
$UCSORTHOVIEW
 70
     0
  9
$UCSORGTOP
 10
0.0
 20
0.0
 30
0.0
  9
$UCSORGBOTTOM
 10
0.0
 20
0.0
 30
0.0
  9
$UCSORGLEFT
 10
0.0
 20
0.0
 30
0.0
  9
$UCSORGRIGHT
 10
0.0
 20
0.0
 30
0.0
  9
$UCSORGFRONT
 10
0.0
 20
0.0
 30
0.0
  9
$UCSORGBACK
 10
0.0
 20
0.0
 30
0.0
  9
$PUCSBASE
  2

  9
$PUCSNAME
  2

  9
$PUCSORG
 10
0.0
 20
0.0
 30
0.0
  9
$PUCSXDIR
 10
1.0
 20
0.0
 30
0.0
  9
$PUCSYDIR
 10
0.0
 20
1.0
 30
0.0
  9
$PUCSORTHOREF
  2

  9
$PUCSORTHOVIEW
 70
     0
  9
$PUCSORGTOP
 10
0.0
 20
0.0
 30
0.0
  9
$PUCSORGBOTTOM
 10
0.0
 20
0.0
 30
0.0
  9
$PUCSORGLEFT
 10
0.0
 20
0.0
 30
0.0
  9
$PUCSORGRIGHT
 10
0.0
 20
0.0
 30
0.0
  9
$PUCSORGFRONT
 10
0.0
 20
0.0
 30
0.0
  9
$PUCSORGBACK
 10
0.0
 20
0.0
 30
0.0
  9
$USERI1
 70
     0
  9
$USERI2
 70
     0
  9
$USERI3
 70
     0
  9
$USERI4
 70
     0
  9
$USERI5
 70
     0
  9
$USERR1
 40
0.0
  9
$USERR2
 40
0.0
  9
$USERR3
 40
0.0
  9
$USERR4
 40
0.0
  9
$USERR5
 40
0.0
  9
$WORLDVIEW
 70
     1
  9
$SHADEDGE
 70
     3
  9
$SHADEDIF
 70
    70
  9
$TILEMODE
 70
     1
  9
$MAXACTVP
 70
    64
  9
$PINSBASE
 10
0.0
 20
0.0
 30
0.0
  9
$PLIMCHECK
 70
     0
  9
$PEXTMIN
 10
0.0
 20
0.0
 30
0.0
  9
$PEXTMAX
 10
0.0
 20
0.0
 30
0.0
  9
$PLIMMIN
 10
0.0
 20
0.0
  9
$PLIMMAX
 10
0.0
 20
0.0
  9
$UNITMODE
 70
     0
  9
$VISRETAIN
 70
     1
  9
$PLINEGEN
 70
     0
  9
$PSLTSCALE
 70
     1
  9
$TREEDEPTH
 70
  3020
  9
$CMLSTYLE
  2
Standard
  9
$CMLJUST
 70
     0
  9
$CMLSCALE
 40
1.0
  9
$PROXYGRAPHICS
 70
     1
  9
$MEASUREMENT
 70
     0
  9
$CELWEIGHT
370
    -1
  9
$ENDCAPS
280
     0
  9
$JOINSTYLE
280
     0
  9
$LWDISPLAY
290
     0
  9
$INSUNITS
 70
     1
  9
$HYPERLINKBASE
  1

  9
$STYLESHEET
  1

  9
$XEDIT
290
     1
  9
$CEPSNTYPE
380
     0
  9
$PSTYLEMODE
290
     1
  9
$FINGERPRINTGUID
  2
{FDEAD576-A652-11D2-9A35-0060089B3A3F}
  9
$VERSIONGUID
  2
{FBC2AE19-5C5C-49EC-81BC-71B1A3362A02}
  9
$EXTNAMES
290
     1
  9
$PSVPSCALE
 40
0.0
  9
$OLESTARTUP
290
     0
  9
$SORTENTS
280
   127
  9
$INDEXCTL
280
     0
  9
$HIDETEXT
280
     1
  9
$XCLIPFRAME
280
     0
  9
$HALOGAP
280
     0
  9
$OBSCOLOR
 70
   257
  9
$OBSLTYPE
280
     0
  9
$INTERSECTIONDISPLAY
280
     0
  9
$INTERSECTIONCOLOR
 70
   257
  9
$DIMASSOC
280
     2
  9
$PROJECTNAME
  1

  9
$CAMERADISPLAY
290
     0
  9
$LENSLENGTH
 40
50.0
  9
$CAMERAHEIGHT
 40
0.0
  9
$STEPSPERSEC
 40
2.0
  9
$STEPSIZE
 40
6.0
  9
$3DDWFPREC
 40
2.0
  9
$PSOLWIDTH
 40
0.25
  9
$PSOLHEIGHT
 40
4.0
  9
$LOFTANG1
 40
1.570796326794897
  9
$LOFTANG2
 40
1.570796326794897
  9
$LOFTMAG1
 40
0.0
  9
$LOFTMAG2
 40
0.0
  9
$LOFTPARAM
 70
     7
  9
$LOFTNORMALS
280
     1
  9
$LATITUDE
 40
37.795
  9
$LONGITUDE
 40
-122.394
  9
$NORTHDIRECTION
 40
0.0
  9
$TIMEZONE
 70
 -8000
  9
$LIGHTGLYPHDISPLAY
280
     1
  9
$TILEMODELIGHTSYNCH
280
     1
  9
$SOLIDHIST
280
     1
  9
$SHOWHIST
280
     1
  9
$DWFFRAME
280
     2
  9
$DGNFRAME
280
     2
  9
$REALWORLDSCALE
290
     1
  9
$INTERFERECOLOR
 62
     1
  9
$CSHADOW
280
     0
  9
$SHADOWPLANELOCATION
 40
0.0
  0
ENDSEC
  0
SECTION
  2
CLASSES
  0
CLASS
  1
ACDBDICTIONARYWDFLT
  2
AcDbDictionaryWithDefault
  3
ObjectDBX Classes
 90
        0
 91
        3
280
     0
281
     0
  0
CLASS
  1
ACDBPLACEHOLDER
  2
AcDbPlaceHolder
  3
ObjectDBX Classes
 90
        0
 91
        1
280
     0
281
     0
  0
CLASS
  1
LAYOUT
  2
AcDbLayout
  3
ObjectDBX Classes
 90
        0
 91
        1
280
     0
281
     0
  0
CLASS
  1
DICTIONARYVAR
  2
AcDbDictionaryVar
  3
ObjectDBX Classes
 90
        0
 91
        3
280
     0
281
     0
  0
CLASS
  1
TABLESTYLE
  2
AcDbTableStyle
  3
ObjectDBX Classes
 90
     4095
 91
        3
280
     0
281
     0
  0
CLASS
  1
MATERIAL
  2
AcDbMaterial
  3
ObjectDBX Classes
 90
     1153
 91
        3
280
     0
281
     0
  0
CLASS
  1
VISUALSTYLE
  2
AcDbVisualStyle
  3
ObjectDBX Classes
 90
     4095
 91
        3
280
     0
281
     0
  0
CLASS
  1
SCALE
  2
AcDbScale
  3
ObjectDBX Classes
 90
     1153
 91
        3
280
     0
281
     0
  0
CLASS
  1
CELLSTYLEMAP
  2
AcDbCellStyleMap
  3
ObjectDBX Classes
 90
     1152
 91
        3
280
     0
281
     0
  0
CLASS
  1
RASTERVARIABLES
  2
AcDbRasterVariables
  3
ISM
 90
        0
 91
        3
280
     0
281
     0
  0
CLASS
  1
SUN
  2
AcDbSun
  3
SCENEOE
 90
     1153
 91
        3
280
     0
281
     0
  0
CLASS
  1
MLEADERSTYLE
  2
AcDbMLeaderStyle
  3
ACDB_MLEADERSTYLE_CLASS
 90
     4095
 91
        3
280
     0
281
     0
  0
ENDSEC
  0
SECTION
  2
TABLES
  0
TABLE
  2
VPORT
  5
8
330
0
100
AcDbSymbolTable
 70
     1
  0
VPORT
  5
94
330
8
100
AcDbSymbolTableRecord
100
AcDbViewportTableRecord
  2
*Active
 70
     0
 10
0.0
 20
0.0
 11
1.0
 21
1.0
 12
41.04459356597983
 22
40.53893193249498
 13
0.0
 23
0.0
 14
0.5
 24
0.5
 15
0.5
 25
0.5
 16
0.0
 26
0.0
 36
1.0
 17
-27.66959356597983
 27
-19.53870295786203
 37
0.0
 40
42.84046710825123
 41
2.738944365192582
 42
50.0
 43
0.0
 44
0.0
 50
0.0
 51
0.0
 71
    16
 72
  1000
 73
     1
 74
     3
 75
     0
 76
     0
 77
     0
 78
     0
281
     0
 65
     1
110
0.0
120
0.0
130
0.0
111
1.0
121
0.0
131
0.0
112
0.0
122
1.0
132
0.0
 79
     0
146
0.0
348
9F
 60
     2
 61
     5
292
     1
282
     1
141
0.0
142
0.0
 63
   250
421
  3355443
361
EF
  0
ENDTAB
  0
TABLE
  2
LTYPE
  5
5
330
0
100
AcDbSymbolTable
 70
     1
  0
LTYPE
  5
14
330
5
100
AcDbSymbolTableRecord
100
AcDbLinetypeTableRecord
  2
ByBlock
 70
     0
  3

 72
    65
 73
     0
 40
0.0
  0
LTYPE
  5
15
330
5
100
AcDbSymbolTableRecord
100
AcDbLinetypeTableRecord
  2
ByLayer
 70
     0
  3

 72
    65
 73
     0
 40
0.0
  0
LTYPE
  5
16
330
5
100
AcDbSymbolTableRecord
100
AcDbLinetypeTableRecord
  2
Continuous
 70
     0
  3
Solid line
 72
    65
 73
     0
 40
0.0
  0
ENDTAB
  0
TABLE
  2
LAYER
  5
2
330
0
100
AcDbSymbolTable
 70
     1
  0
LAYER
  5
10
330
2
100
AcDbSymbolTableRecord
100
AcDbLayerTableRecord
  2
0
 70
     0
 62
     7
  6
Continuous
370
    -3
390
F
347
98
348
0
  0
ENDTAB
  0
TABLE
  2
STYLE
  5
3
330
0
100
AcDbSymbolTable
 70
     2
  0
STYLE
  5
11
330
3
100
AcDbSymbolTableRecord
100
AcDbTextStyleTableRecord
  2
Standard
 70
     0
 40
0.0
 41
1.0
 50
0.0
 71
     0
 42
0.2
  3
arial.ttf
  4

1001
ACAD
1000
Arial
1071
        0
  0
STYLE
  5
127
330
3
100
AcDbSymbolTableRecord
100
AcDbTextStyleTableRecord
  2
Annotative
 70
     0
 40
0.0
 41
1.0
 50
0.0
 71
     0
 42
0.2
  3
arial.ttf
  4

1001
ACAD
1000
Arial
1071
        0
1001
AcadAnnotative
1000
AnnotativeData
1002
{
1070
     1
1070
     1
1002
}
  0
ENDTAB
  0
TABLE
  2
VIEW
  5
6
330
0
100
AcDbSymbolTable
 70
     0
  0
ENDTAB
  0
TABLE
  2
UCS
  5
7
330
0
100
AcDbSymbolTable
 70
     0
  0
ENDTAB
  0
TABLE
  2
APPID
  5
9
330
0
100
AcDbSymbolTable
 70
     2
  0
APPID
  5
12
330
9
100
AcDbSymbolTableRecord
100
AcDbRegAppTableRecord
  2
ACAD
 70
     0
  0
APPID
  5
128
330
9
100
AcDbSymbolTableRecord
100
AcDbRegAppTableRecord
  2
AcadAnnotative
 70
     0
  0
ENDTAB
  0
TABLE
  2
DIMSTYLE
  5
A
330
0
100
AcDbSymbolTable
 70
     3
100
AcDbDimStyleTable
  0
DIMSTYLE
105
27
330
A
100
AcDbSymbolTableRecord
100
AcDbDimStyleTableRecord
  2
Standard
 70
     0
178
     0
340
11
  0
DIMSTYLE
105
E1
330
A
100
AcDbSymbolTableRecord
100
AcDbDimStyleTableRecord
  2
Ansi1
 70
     0
178
     0
340
11
  0
DIMSTYLE
105
129
330
A
100
AcDbSymbolTableRecord
100
AcDbDimStyleTableRecord
  2
Annotative
 70
     0
 40
0.0
178
     0
340
11
1001
AcadAnnotative
1000
AnnotativeData
1002
{
1070
     1
1070
     1
1002
}
  0
ENDTAB
  0
TABLE
  2
BLOCK_RECORD
  5
1
330
0
100
AcDbSymbolTable
 70
     1
  0
BLOCK_RECORD
  5
1F
330
1
100
AcDbSymbolTableRecord
100
AcDbBlockTableRecord
  2
*Model_Space
340
22
 70
     0
280
     1
281
     0
  0
BLOCK_RECORD
  5
58
330
1
100
AcDbSymbolTableRecord
100
AcDbBlockTableRecord
  2
*Paper_Space
340
59
 70
     0
280
     1
281
     0
  0
BLOCK_RECORD
  5
5D
330
1
100
AcDbSymbolTableRecord
100
AcDbBlockTableRecord
  2
*Paper_Space0
340
5E
 70
     0
280
     1
281
     0
  0
ENDTAB
  0
ENDSEC
  0
SECTION
  2
BLOCKS
  0
BLOCK
  5
20
330
1F
100
AcDbEntity
  8
0
100
AcDbBlockBegin
  2
*Model_Space
 70
     0
 10
0.0
 20
0.0
 30
0.0
  3
*Model_Space
  1

  0
ENDBLK
  5
21
330
1F
100
AcDbEntity
  8
0
100
AcDbBlockEnd
  0
BLOCK
  5
5A
330
58
100
AcDbEntity
 67
     1
  8
0
100
AcDbBlockBegin
  2
*Paper_Space
 70
     0
 10
0.0
 20
0.0
 30
0.0
  3
*Paper_Space
  1

  0
ENDBLK
  5
5B
330
58
100
AcDbEntity
 67
     1
  8
0
100
AcDbBlockEnd
  0
BLOCK
  5
5F
330
5D
100
AcDbEntity
  8
0
100
AcDbBlockBegin
  2
*Paper_Space0
 70
     0
 10
0.0
 20
0.0
 30
0.0
  3
*Paper_Space0
  1

  0
ENDBLK
  5
60
330
5D
100
AcDbEntity
  8
0
100
AcDbBlockEnd
  0
ENDSEC
  0
SECTION
  2
ENTITIES
  0
SPLINE
  5
1BA
330
1F
100
AcDbEntity
  8
0
  6
Continuous
 62
     7
370
    25
100
AcDbSpline
210
0.0
220
0.0
230
1.0
 70
    24
 71
     3
 72
    11
 73
     7
 74
     0
 42
0.000000001
 43
0.00000001
 40
0.0
 40
0.0
 40
0.0
 40
0.0
 40
0.1253116928736575
 40
0.3426386129371551
 40
0.5600332439329524
 40
0.9999999999999999
 40
0.9999999999999999
 40
0.9999999999999999
 40
0.9999999999999999
 10
0.0000000000000009
 20
26.54647021895941
 30
0.0
 10
0.0000000000000008
 20
26.54564221920441
 30
0.0
 10
0.0000000000000011
 20
26.54337822706561
 30
0.0
 10
0.0000000000000009
 20
26.56037569676781
 30
0.0
 10
0.0000000000000011
 20
26.59798394260555
 30
0.0
 10
0.0000000000000007
 20
26.64414204848122
 30
0.0
 10
0.0000000000000006
 20
26.67503530218912
 30
0.0
  0
SPLINE
  5
1BB
330
1F
100
AcDbEntity
  8
0
  6
Continuous
 62
     7
370
    25
100
AcDbSpline
210
0.0
220
0.0
230
1.0
 70
     8
 71
     3
 72
    24
 73
    20
 74
     0
 42
0.000000001
 43
0.00000001
 40
0.0
 40
0.0
 40
0.0
 40
0.0
 40
0.1249999999999997
 40
0.1249999999999997
 40
0.2499999999999995
 40
0.2499999999999995
 40
0.3749999999999993
 40
0.3749999999999993
 40
0.4999999999999991
 40
0.4999999999999991
 40
0.5624999999999991
 40
0.5624999999999991
 40
0.6249999999999989
 40
0.6249999999999989
 40
0.7499999999999992
 40
0.7499999999999992
 40
0.8749999999999997
 40
0.8749999999999997
 40
1.0
 40
1.0
 40
1.0
 40
1.0
 10
0.0
 20
26.67503530218912
 30
0.0
 10
0.0703764047763715
 20
26.65692282100893
 30
0.0
 10
0.1410090122772503
 20
26.63982082428156
 30
0.0
 10
0.283031413596624
 20
26.60860323545363
 30
0.0
 10
0.3544212503643019
 20
26.59448781274813
 30
0.0
 10
0.4983007613763848
 20
26.57059481609745
 30
0.0
 10
0.5707938053570718
 20
26.56083053266714
 30
0.0
 10
0.7172811821939369
 20
26.54722317164395
 30
0.0
 10
0.7912830853602084
 20
26.54340995197186
 30
0.0
 10
0.9036316943293947
 20
26.54299788692663
 30
0.0
 10
0.9413037744048774
 20
26.54373826263174
 30
0.0
 10
1.017099629198313
 20
26.54700053457238
 30
0.0
 10
1.054866206887503
 20
26.54950815985683
 30
0.0
 10
1.167362570602961
 20
26.55937965034573
 30
0.0
 10
1.241496360533211
 20
26.56909877512977
 30
0.0
 10
1.388498135585122
 20
26.5931356892042
 30
0.0
 10
1.461370296892045
 20
26.60743830642795
 30
0.0
 10
1.606257350251077
 20
26.63915799712316
 30
0.0
 10
1.678272253006371
 20
26.65657503170999
 30
0.0
 10
1.750000000000001
 20
26.67503530218912
 30
0.0
  0
SPLINE
  5
1BC
330
1F
100
AcDbEntity
  8
0
  6
Continuous
 62
     7
370
    25
100
AcDbSpline
210
0.0
220
0.0
230
1.0
 70
    24
 71
     3
 72
    11
 73
     7
 74
     0
 42
0.000000001
 43
0.00000001
 40
0.0
 40
0.0
 40
0.0
 40
0.0
 40
0.2786715149070172
 40
0.5572388201020749
 40
0.8413357571247592
 40
1.0
 40
1.0
 40
1.0
 40
1.0
 10
1.750000000000001
 20
26.67503530218912
 30
0.0
 10
1.750000000000001
 20
26.65515578744841
 30
0.0
 10
1.750000000000001
 20
26.61540419194712
 30
0.0
 10
1.75
 20
26.57089345212671
 30
0.0
 10
1.750000000000001
 20
26.54497433466381
 30
0.0
 10
1.750000000000001
 20
26.54607558424626
 30
0.0
 10
1.750000000000001
 20
26.54647021895941
 30
0.0
  0
SPLINE
  5
1BD
330
1F
100
AcDbEntity
  8
0
  6
Continuous
 62
     7
370
    25
100
AcDbSpline
210
0.0
220
0.0
230
1.0
 70
     8
 71
     3
 72
    24
 73
    20
 74
     0
 42
0.000000001
 43
0.00000001
 40
0.0
 40
0.0
 40
0.0
 40
0.0
 40
0.125
 40
0.125
 40
0.25
 40
0.25
 40
0.375
 40
0.375
 40
0.5
 40
0.5
 40
0.5625
 40
0.5625
 40
0.625
 40
0.625
 40
0.75
 40
0.75
 40
0.875
 40
0.875
 40
1.0
 40
1.0
 40
1.0
 40
1.0
 10
1.750000000000001
 20
4.818269695644896
 30
0.0
 10
1.679623595223629
 20
4.836382176825097
 30
0.0
 10
1.608990987722752
 20
4.853484173552453
 30
0.0
 10
1.466968586403378
 20
4.884701762380391
 30
0.0
 10
1.395578749635699
 20
4.898817185085887
 30
0.0
 10
1.251699238623616
 20
4.922710181736576
 30
0.0
 10
1.17920619464293
 20
4.932474465166885
 30
0.0
 10
1.032718817806064
 20
4.946081826190068
 30
0.0
 10
0.9587169146397935
 20
4.949895045862165
 30
0.0
 10
0.8463683056706073
 20
4.950307110907398
 30
0.0
 10
0.8086962255951252
 20
4.949566735202273
 30
0.0
 10
0.73290037080169
 20
4.946304463261639
 30
0.0
 10
0.6951337931124999
 20
4.943796837977196
 30
0.0
 10
0.5826374293970416
 20
4.933925347488283
 30
0.0
 10
0.5085036394667906
 20
4.924206222704248
 30
0.0
 10
0.3615018644148796
 20
4.900169308629804
 30
0.0
 10
0.2886297031079563
 20
4.885866691406063
 30
0.0
 10
0.1437426497489249
 20
4.854147000710856
 30
0.0
 10
0.071727746993631
 20
4.836729966124024
 30
0.0
 10
0.0000000000000008
 20
4.818269695644896
 30
0.0
  0
SPLINE
  5
1BE
330
1F
100
AcDbEntity
  8
0
  6
Continuous
 62
     7
370
    25
100
AcDbSpline
210
0.0
220
0.0
230
1.0
 70
    24
 71
     3
 72
    11
 73
     7
 74
     0
 42
0.000000001
 43
0.00000001
 40
0.0
 40
0.0
 40
0.0
 40
0.0
 40
0.1253116928736592
 40
0.3426386129371563
 40
0.5600332439329535
 40
1.0
 40
1.0
 40
1.0
 40
1.0
 10
1.750000000000001
 20
4.946834778874615
 30
0.0
 10
1.750000000000001
 20
4.947662778629613
 30
0.0
 10
1.750000000000001
 20
4.949926770768404
 30
0.0
 10
1.75
 20
4.932929301066213
 30
0.0
 10
1.750000000000001
 20
4.895321055228466
 30
0.0
 10
1.750000000000001
 20
4.849162949352804
 30
0.0
 10
1.750000000000001
 20
4.818269695644896
 30
0.0
  0
SPLINE
  5
1BF
330
1F
100
AcDbEntity
  8
0
  6
Continuous
 62
     7
370
    25
100
AcDbSpline
210
0.0
220
0.0
230
1.0
 70
    24
 71
     3
 72
    11
 73
     7
 74
     0
 42
0.000000001
 43
0.00000001
 40
0.0
 40
0.0
 40
0.0
 40
0.0
 40
0.278671514907017
 40
0.5572388201020754
 40
0.8413357571247603
 40
1.0
 40
1.0
 40
1.0
 40
1.0
 10
0.0000000000000009
 20
4.818269695644896
 30
0.0
 10
0.0000000000000011
 20
4.83814921038561
 30
0.0
 10
0.0000000000000011
 20
4.877900805886908
 30
0.0
 10
0.0000000000000011
 20
4.922411545707304
 30
0.0
 10
0.0000000000000007
 20
4.948330663170221
 30
0.0
 10
0.0000000000000007
 20
4.947229413587754
 30
0.0
 10
0.0000000000000009
 20
4.946834778874615
 30
0.0
  0
LINE
  5
1C0
330
1F
100
AcDbEntity
  8
0
  6
Continuous
 62
     7
370
    25
100
AcDbLine
 10
0.0000000000000006
 20
26.5431190707726
 30
0.0
 11
0.2192873631534934
 21
26.46330499783401
 31
0.0
  0
LINE
  5
1C1
330
1F
100
AcDbEntity
  8
0
  6
Continuous
 62
     7
370
    25
100
AcDbLine
 10
1.530712636846508
 20
26.46330499783401
 30
0.0
 11
1.750000000000001
 21
26.5431190707726
 31
0.0
  0
LINE
  5
1C2
330
1F
100
AcDbEntity
  8
0
  6
Continuous
 62
     7
370
    25
100
AcDbLine
 10
1.750000000000001
 20
4.95018592706142
 30
0.0
 11
1.530712636846538
 21
5.030000000000001
 31
0.0
  0
LINE
  5
1C3
330
1F
100
AcDbEntity
  8
0
  6
Continuous
 62
     7
370
    25
100
AcDbLine
 10
0.2192873631534639
 20
5.030000000000001
 30
0.0
 11
0.0000000000000008
 21
4.95018592706142
 31
0.0
  0
LINE
  5
1C4
330
1F
100
AcDbEntity
  8
0
  6
Continuous
 62
     7
370
    25
100
AcDbLine
 10
0.0300000000376723
 20
14.39066695192381
 30
0.0
 11
0.0467984252951704
 21
13.95366695191848
 31
0.0
  0
LINE
  5
1C5
330
1F
100
AcDbEntity
  8
0
  6
Continuous
 62
     7
370
    25
100
AcDbLine
 10
1.703201574704829
 20
13.95366695191848
 30
0.0
 11
1.719999999962327
 21
14.39066695192381
 31
0.0
  0
LINE
  5
1C6
330
1F
100
AcDbEntity
  8
0
  6
Continuous
 62
     7
370
    25
100
AcDbLine
 10
1.719999999962327
 20
17.1026380459102
 30
0.0
 11
1.703201574704829
 21
17.53963804591552
 31
0.0
  0
LINE
  5
1C7
330
1F
100
AcDbEntity
  8
0
  6
Continuous
 62
     7
370
    25
100
AcDbLine
 10
0.04679842529517
 20
17.53963804591552
 30
0.0
 11
0.0300000000376723
 21
17.1026380459102
 31
0.0
  0
LINE
  5
1C8
330
1F
100
AcDbEntity
  8
0
  6
Continuous
 62
     7
370
    25
100
AcDbLine
 10
0.0516026665129323
 20
13.82868777202448
 30
0.0
 11
0.0612135169955615
 21
13.5786678090463
 31
0.0
  0
LINE
  5
1C9
330
1F
100
AcDbEntity
  8
0
  6
Continuous
 62
     7
370
    25
100
AcDbLine
 10
1.688786483004438
 20
13.5786678090463
 30
0.0
 11
1.698397333487068
 21
13.82868777202448
 31
0.0
  0
LINE
  5
1CA
330
1F
100
AcDbEntity
  8
0
  6
Continuous
 62
     7
370
    25
100
AcDbLine
 10
1.698397333487067
 20
17.66461722580953
 30
0.0
 11
1.688786483004438
 21
17.9146371887877
 31
0.0
  0
LINE
  5
1CB
330
1F
100
AcDbEntity
  8
0
  6
Continuous
 62
     7
370
    25
100
AcDbLine
 10
0.0612135169955612
 20
17.9146371887877
 30
0.0
 11
0.0516026665129318
 21
17.66461722580953
 31
0.0
  0
LINE
  5
1CC
330
1F
100
AcDbEntity
  8
0
  6
Continuous
 62
     7
370
    25
100
AcDbLine
 10
0.0660177582133934
 20
13.4536886291523
 30
0.0
 11
0.4217873631535185
 21
6.061652498917004
 31
0.0
  0
LINE
  5
1CD
330
1F
100
AcDbEntity
  8
0
  6
Continuous
 62
     7
370
    25
100
AcDbLine
 10
1.328212636846483
 20
6.061652498917004
 30
0.0
 11
1.683982241786607
 21
13.4536886291523
 31
0.0
  0
LINE
  5
1CE
330
1F
100
AcDbEntity
  8
0
  6
Continuous
 62
     7
370
    25
100
AcDbLine
 10
1.683982241786606
 20
18.03961636868171
 30
0.0
 11
1.328212636846341
 21
25.431652498917
 31
0.0
  0
LINE
  5
1CF
330
1F
100
AcDbEntity
  8
0
  6
Continuous
 62
     7
370
    25
100
AcDbLine
 10
0.4217873631536561
 20
25.431652498917
 30
0.0
 11
0.0660177582133928
 21
18.03961636868171
 31
0.0
  0
LINE
  5
1D0
330
1F
100
AcDbEntity
  8
0
  6
Continuous
 62
     7
370
    25
100
AcDbLine
 10
1.53071263684659
 20
25.90036883409921
 30
0.0
 11
1.53071263684659
 21
26.02543267035557
 31
0.0
  0
LINE
  5
1D1
330
1F
100
AcDbEntity
  8
0
  6
Continuous
 62
     7
370
    25
100
AcDbLine
 10
0.2192873631534114
 20
26.02543267035557
 30
0.0
 11
0.2192873631534114
 21
25.90036883409921
 31
0.0
  0
LINE
  5
1D2
330
1F
100
AcDbEntity
  8
0
  6
Continuous
 62
     7
370
    25
100
AcDbLine
 10
1.530712636846587
 20
5.467872327478433
 30
0.0
 11
1.530712636846587
 21
5.592936163734787
 31
0.0
  0
LINE
  5
1D3
330
1F
100
AcDbEntity
  8
0
  6
Continuous
 62
     7
370
    25
100
AcDbLine
 10
0.2192873631534147
 20
5.592936163734787
 30
0.0
 11
0.2192873631534147
 21
5.467872327478433
 31
0.0
  0
LINE
  5
1D4
330
1F
100
AcDbEntity
  8
0
  6
Continuous
 62
     7
370
    25
100
AcDbLine
 10
0.2347500000016174
 20
16.19695168563107
 30
0.0
 11
0.2347500000016174
 21
16.07195168563098
 31
0.0
  0
LINE
  5
1D5
330
1F
100
AcDbEntity
  8
0
  6
Continuous
 62
     7
370
    25
100
AcDbLine
 10
1.515249999998382
 20
16.07195168563098
 30
0.0
 11
1.515249999998382
 21
16.19695168563107
 31
0.0
  0
LINE
  5
1D6
330
1F
100
AcDbEntity
  8
0
  6
Continuous
 62
     7
370
    25
100
AcDbLine
 10
0.2347500000016176
 20
15.42135331220303
 30
0.0
 11
0.2347500000016176
 21
15.29635331220293
 31
0.0
  0
LINE
  5
1D7
330
1F
100
AcDbEntity
  8
0
  6
Continuous
 62
     7
370
    25
100
AcDbLine
 10
1.515249999998382
 20
15.29635331220293
 30
0.0
 11
1.515249999998382
 21
15.42135331220303
 31
0.0
  0
LINE
  5
1D8
330
1F
100
AcDbEntity
  8
0
  6
Continuous
 62
     7
370
    25
100
AcDbLine
 10
0.4217873631532916
 20
25.61986883409936
 30
0.0
 11
0.4842873631532681
 21
25.60076066650819
 31
0.0
  0
LINE
  5
1D9
330
1F
100
AcDbEntity
  8
0
  6
Continuous
 62
     7
370
    25
100
AcDbLine
 10
1.265712636846734
 20
25.60076066650819
 30
0.0
 11
1.32821263684671
 21
25.61986883409936
 31
0.0
  0
LINE
  5
1DA
330
1F
100
AcDbEntity
  8
0
  6
Continuous
 62
     7
370
    25
100
AcDbLine
 10
1.328212636846709
 20
5.873436163734638
 30
0.0
 11
1.265712636846732
 21
5.892544331325822
 31
0.0
  0
LINE
  5
1DB
330
1F
100
AcDbEntity
  8
0
  6
Continuous
 62
     7
370
    25
100
AcDbLine
 10
0.4842873631532693
 20
5.892544331325822
 30
0.0
 11
0.4217873631532925
 21
5.873436163734638
 31
0.0
  0
LINE
  5
1DC
330
1F
100
AcDbEntity
  8
0
  6
Continuous
 62
     7
370
    25
100
AcDbLine
 10
0.4217873631533625
 20
6.061652498917004
 30
0.0
 11
0.4842873631532694
 21
6.042544331325821
 31
0.0
  0
LINE
  5
1DD
330
1F
100
AcDbEntity
  8
0
  6
Continuous
 62
     7
370
    25
100
AcDbLine
 10
1.265712636846732
 20
6.042544331325821
 30
0.0
 11
1.328212636846639
 21
6.061652498917004
 31
0.0
  0
LINE
  5
1DE
330
1F
100
AcDbEntity
  8
0
  6
Continuous
 62
     7
370
    25
100
AcDbLine
 10
1.328212636846346
 20
25.43165249891709
 30
0.0
 11
1.265712636846732
 21
25.45076066650818
 31
0.0
  0
LINE
  5
1DF
330
1F
100
AcDbEntity
  8
0
  6
Continuous
 62
     7
370
    25
100
AcDbLine
 10
0.4842873631532693
 20
25.45076066650818
 30
0.0
 11
0.4217873631536561
 21
25.43165249891709
 31
0.0
  0
LINE
  5
1E0
330
1F
100
AcDbEntity
  8
0
  6
Continuous
 62
     7
370
    25
100
AcDbLine
 10
1.312499999990881
 20
14.84906136839838
 30
0.0
 11
1.259999999988455
 21
14.86511222917508
 31
0.0
  0
LINE
  5
1E1
330
1F
100
AcDbEntity
  8
0
  6
Continuous
 62
     7
370
    25
100
AcDbLine
 10
0.4900000000115441
 20
14.86511222917508
 30
0.0
 11
0.4375000000091183
 21
14.84906136839838
 31
0.0
  0
LINE
  5
1E2
330
1F
100
AcDbEntity
  8
0
  6
Continuous
 62
     7
370
    25
100
AcDbLine
 10
0.4375000000091184
 20
16.64424362943562
 30
0.0
 11
0.4900000000115439
 21
16.62819276865893
 31
0.0
  0
LINE
  5
1E3
330
1F
100
AcDbEntity
  8
0
  6
Continuous
 62
     7
370
    25
100
AcDbLine
 10
1.259999999988455
 20
16.62819276865893
 30
0.0
 11
1.312499999990881
 21
16.64424362943562
 31
0.0
  0
LINE
  5
1E4
330
1F
100
AcDbEntity
  8
0
  6
Continuous
 62
     7
370
    25
100
AcDbLine
 10
0.4375000000103074
 20
15.01516308995201
 30
0.0
 11
0.4900000000115441
 21
14.9991122291751
 31
0.0
  0
LINE
  5
1E5
330
1F
100
AcDbEntity
  8
0
  6
Continuous
 62
     7
370
    25
100
AcDbLine
 10
1.259999999988455
 20
14.9991122291751
 30
0.0
 11
1.312499999989692
 21
15.01516308995201
 31
0.0
  0
LINE
  5
1E6
330
1F
100
AcDbEntity
  8
0
  6
Continuous
 62
     7
370
    25
100
AcDbLine
 10
1.312499999989691
 20
16.47814190788201
 30
0.0
 11
1.259999999988455
 21
16.49419276865891
 31
0.0
  0
LINE
  5
1E7
330
1F
100
AcDbEntity
  8
0
  6
Continuous
 62
     7
370
    25
100
AcDbLine
 10
0.4900000000115439
 20
16.49419276865891
 30
0.0
 11
0.4375000000103077
 21
16.47814190788201
 31
0.0
  0
LINE
  5
1E8
330
1F
100
AcDbEntity
  8
0
  6
Continuous
 62
     7
370
    25
100
AcDbLine
 10
1.265712636846733
 20
25.45076066650818
 30
0.0
 11
1.265712636846733
 21
25.60076066650819
 31
0.0
  0
LINE
  5
1E9
330
1F
100
AcDbEntity
  8
0
  6
Continuous
 62
     7
370
    25
100
AcDbLine
 10
0.4842873631532688
 20
25.60076066650819
 30
0.0
 11
0.4842873631532688
 21
25.45076066650818
 31
0.0
  0
LINE
  5
1EA
330
1F
100
AcDbEntity
  8
0
  6
Continuous
 62
     7
370
    25
100
AcDbLine
 10
1.265712636846732
 20
5.892544331325822
 30
0.0
 11
1.265712636846732
 21
6.042544331325821
 31
0.0
  0
LINE
  5
1EB
330
1F
100
AcDbEntity
  8
0
  6
Continuous
 62
     7
370
    25
100
AcDbLine
 10
0.4842873631532694
 20
6.042544331325821
 30
0.0
 11
0.4842873631532694
 21
5.892544331325822
 31
0.0
  0
LINE
  5
1EC
330
1F
100
AcDbEntity
  8
0
  6
Continuous
 62
     7
370
    25
100
AcDbLine
 10
0.4900000000115441
 20
14.9991122291751
 30
0.0
 11
0.4900000000115441
 21
14.86511222917508
 31
0.0
  0
LINE
  5
1ED
330
1F
100
AcDbEntity
  8
0
  6
Continuous
 62
     7
370
    25
100
AcDbLine
 10
1.259999999988455
 20
14.86511222917508
 30
0.0
 11
1.259999999988455
 21
14.9991122291751
 31
0.0
  0
LINE
  5
1EE
330
1F
100
AcDbEntity
  8
0
  6
Continuous
 62
     7
370
    25
100
AcDbLine
 10
0.4900000000115439
 20
16.62819276865893
 30
0.0
 11
0.4900000000115439
 21
16.49419276865891
 31
0.0
  0
LINE
  5
1EF
330
1F
100
AcDbEntity
  8
0
  6
Continuous
 62
     7
370
    25
100
AcDbLine
 10
1.259999999988455
 20
16.49419276865891
 30
0.0
 11
1.259999999988455
 21
16.62819276865893
 31
0.0
  0
LINE
  5
1F0
330
1F
100
AcDbEntity
  8
0
  6
Continuous
 62
     7
370
    25
100
AcDbLine
 10
0.5000000000000009
 20
0.4999999999999991
 30
0.0
 11
0.5000000000000009
 21
0.0
 31
0.0
  0
LINE
  5
1F1
330
1F
100
AcDbEntity
  8
0
  6
Continuous
 62
     7
370
    25
100
AcDbLine
 10
1.250000000000001
 20
0.0
 30
0.0
 11
1.250000000000001
 21
0.4999999999999991
 31
0.0
  0
LINE
  5
1F2
330
1F
100
AcDbEntity
  8
0
  6
Continuous
 62
     7
370
    25
100
AcDbLine
 10
0.2192873631534934
 20
26.46330499783401
 30
0.0
 11
1.530712636846508
 21
26.46330499783401
 31
0.0
  0
LINE
  5
1F3
330
1F
100
AcDbEntity
  8
0
  6
Continuous
 62
     7
370
    25
100
AcDbLine
 10
0.0000000000000009
 20
32.00030499783401
 30
0.0
 11
1.750000000000001
 21
32.00030499783401
 31
0.0
  0
LINE
  5
1F4
330
1F
100
AcDbEntity
  8
0
  6
Continuous
 62
     7
370
    25
100
AcDbLine
 10
0.0000000000000009
 20
32.00030499783401
 30
0.0
 11
0.0000000000000006
 21
26.67503530218912
 31
0.0
  0
LINE
  5
1F5
330
1F
100
AcDbEntity
  8
0
  6
Continuous
 62
     7
370
    25
100
AcDbLine
 10
1.750000000000001
 20
32.00030499783401
 30
0.0
 11
1.750000000000001
 21
26.67503530218912
 31
0.0
  0
LINE
  5
1F6
330
1F
100
AcDbEntity
  8
0
  6
Continuous
 62
     7
370
    25
100
AcDbLine
 10
1.750000000000001
 20
0.4999999999999991
 30
0.0
 11
1.750000000000001
 21
4.818269695644896
 31
0.0
  0
LINE
  5
1F7
330
1F
100
AcDbEntity
  8
0
  6
Continuous
 62
     7
370
    25
100
AcDbLine
 10
0.0000000000000009
 20
0.4999999999999991
 30
0.0
 11
0.0000000000000009
 21
4.818269695644896
 31
0.0
  0
LINE
  5
1F8
330
1F
100
AcDbEntity
  8
0
  6
Continuous
 62
     7
370
    25
100
AcDbLine
 10
1.750000000000001
 20
0.4999999999999991
 30
0.0
 11
0.0000000000000009
 21
0.4999999999999991
 31
0.0
  0
LINE
  5
1F9
330
1F
100
AcDbEntity
  8
0
  6
Continuous
 62
     7
370
    25
100
AcDbLine
 10
0.2192873631534633
 20
5.030000000000001
 30
0.0
 11
1.530712636846538
 21
5.030000000000001
 31
0.0
  0
LINE
  5
1FA
330
1F
100
AcDbEntity
  8
0
  6
Continuous
 62
     7
370
    25
100
AcDbLine
 10
1.530712636846591
 20
26.02543267035557
 30
0.0
 11
0.2192873631534108
 21
26.02543267035557
 31
0.0
  0
LINE
  5
1FB
330
1F
100
AcDbEntity
  8
0
  6
Continuous
 62
     7
370
    25
100
AcDbLine
 10
1.530712636846587
 20
5.467872327478433
 30
0.0
 11
0.2192873631534146
 21
5.467872327478433
 31
0.0
  0
LINE
  5
1FC
330
1F
100
AcDbEntity
  8
0
  6
Continuous
 62
     7
370
    25
100
AcDbLine
 10
0.2347500000016173
 20
16.07195168563098
 30
0.0
 11
1.515249999998383
 21
16.07195168563098
 31
0.0
  0
LINE
  5
1FD
330
1F
100
AcDbEntity
  8
0
  6
Continuous
 62
     7
370
    25
100
AcDbLine
 10
0.2347500000016176
 20
15.42135331220303
 30
0.0
 11
1.515249999998382
 21
15.42135331220303
 31
0.0
  0
LINE
  5
1FE
330
1F
100
AcDbEntity
  8
0
  6
Continuous
 62
     7
370
    25
100
AcDbLine
 10
0.0300000000376723
 20
14.39066695192381
 30
0.0
 11
1.719999999962327
 21
14.39066695192381
 31
0.0
  0
LINE
  5
1FF
330
1F
100
AcDbEntity
  8
0
  6
Continuous
 62
     7
370
    25
100
AcDbLine
 10
0.0467984252951704
 20
13.95366695191848
 30
0.0
 11
1.70320157470483
 21
13.95366695191848
 31
0.0
  0
LINE
  5
200
330
1F
100
AcDbEntity
  8
0
  6
Continuous
 62
     7
370
    25
100
AcDbLine
 10
0.4375000000091183
 20
14.84906136839838
 30
0.0
 11
1.312499999990881
 21
14.84906136839838
 31
0.0
  0
LINE
  5
201
330
1F
100
AcDbEntity
  8
0
  6
Continuous
 62
     7
370
    25
100
AcDbLine
 10
0.04679842529517
 20
17.53963804591552
 30
0.0
 11
1.703201574704829
 21
17.53963804591552
 31
0.0
  0
LINE
  5
202
330
1F
100
AcDbEntity
  8
0
  6
Continuous
 62
     7
370
    25
100
AcDbLine
 10
0.0300000000376723
 20
17.1026380459102
 30
0.0
 11
1.719999999962327
 21
17.1026380459102
 31
0.0
  0
LINE
  5
203
330
1F
100
AcDbEntity
  8
0
  6
Continuous
 62
     7
370
    25
100
AcDbLine
 10
0.4375000000091184
 20
16.64424362943562
 30
0.0
 11
1.312499999990881
 21
16.64424362943562
 31
0.0
  0
LINE
  5
204
330
1F
100
AcDbEntity
  8
0
  6
Continuous
 62
     7
370
    25
100
AcDbLine
 10
0.0516026665129319
 20
17.66461722580953
 30
0.0
 11
1.698397333487068
 21
17.66461722580953
 31
0.0
  0
LINE
  5
205
330
1F
100
AcDbEntity
  8
0
  6
Continuous
 62
     7
370
    25
100
AcDbLine
 10
0.0516026665129323
 20
13.82868777202448
 30
0.0
 11
1.698397333487068
 21
13.82868777202448
 31
0.0
  0
LINE
  5
206
330
1F
100
AcDbEntity
  8
0
  6
Continuous
 62
     7
370
    25
100
AcDbLine
 10
0.0612135169955614
 20
13.5786678090463
 30
0.0
 11
1.688786483004439
 21
13.5786678090463
 31
0.0
  0
LINE
  5
207
330
1F
100
AcDbEntity
  8
0
  6
Continuous
 62
     7
370
    25
100
AcDbLine
 10
0.061213516995561
 20
17.9146371887877
 30
0.0
 11
1.688786483004438
 21
17.9146371887877
 31
0.0
  0
LINE
  5
208
330
1F
100
AcDbEntity
  8
0
  6
Continuous
 62
     7
370
    25
100
AcDbLine
 10
0.0660177582133933
 20
13.4536886291523
 30
0.0
 11
1.683982241786607
 21
13.4536886291523
 31
0.0
  0
LINE
  5
209
330
1F
100
AcDbEntity
  8
0
  6
Continuous
 62
     7
370
    25
100
AcDbLine
 10
0.0660177582133927
 20
18.03961636868171
 30
0.0
 11
1.683982241786607
 21
18.03961636868171
 31
0.0
  0
LINE
  5
20A
330
1F
100
AcDbEntity
  8
0
  6
Continuous
 62
     7
370
    25
100
AcDbLine
 10
1.328212636846639
 20
6.061652498917004
 30
0.0
 11
0.4217873631533626
 21
6.061652498917004
 31
0.0
  0
LINE
  5
20B
330
1F
100
AcDbEntity
  8
0
  6
Continuous
 62
     7
370
    25
100
AcDbLine
 10
0.4217873631536561
 20
25.431652498917
 30
0.0
 11
1.328212636846341
 21
25.431652498917
 31
0.0
  0
LINE
  5
20C
330
1F
100
AcDbEntity
  8
0
  6
Continuous
 62
     7
370
    25
100
AcDbLine
 10
1.53071263684659
 20
25.90036883409921
 30
0.0
 11
0.2192873631534119
 21
25.90036883409921
 31
0.0
  0
LINE
  5
20D
330
1F
100
AcDbEntity
  8
0
  6
Continuous
 62
     7
370
    25
100
AcDbLine
 10
1.32821263684671
 20
25.61986883409936
 30
0.0
 11
0.4217873631532916
 21
25.61986883409936
 31
0.0
  0
LINE
  5
20E
330
1F
100
AcDbEntity
  8
0
  6
Continuous
 62
     7
370
    25
100
AcDbLine
 10
1.530712636846587
 20
5.592936163734787
 30
0.0
 11
0.219287363153415
 21
5.592936163734787
 31
0.0
  0
LINE
  5
20F
330
1F
100
AcDbEntity
  8
0
  6
Continuous
 62
     7
370
    25
100
AcDbLine
 10
1.328212636846709
 20
5.873436163734638
 30
0.0
 11
0.4217873631532925
 21
5.873436163734638
 31
0.0
  0
LINE
  5
210
330
1F
100
AcDbEntity
  8
0
  6
Continuous
 62
     7
370
    25
100
AcDbLine
 10
0.2347500000016175
 20
16.19695168563107
 30
0.0
 11
1.515249999998382
 21
16.19695168563107
 31
0.0
  0
LINE
  5
211
330
1F
100
AcDbEntity
  8
0
  6
Continuous
 62
     7
370
    25
100
AcDbLine
 10
0.2347500000016176
 20
15.29635331220293
 30
0.0
 11
1.515249999998382
 21
15.29635331220293
 31
0.0
  0
LINE
  5
212
330
1F
100
AcDbEntity
  8
0
  6
Continuous
 62
     7
370
    25
100
AcDbLine
 10
0.4375000000103077
 20
16.47814190788201
 30
0.0
 11
1.312499999989691
 21
16.47814190788201
 31
0.0
  0
LINE
  5
213
330
1F
100
AcDbEntity
  8
0
  6
Continuous
 62
     7
370
    25
100
AcDbLine
 10
0.4375000000103074
 20
15.01516308995201
 30
0.0
 11
1.312499999989692
 21
15.01516308995201
 31
0.0
  0
LINE
  5
214
330
1F
100
AcDbEntity
  8
0
  6
Continuous
 62
     7
370
    25
100
AcDbLine
 10
1.265712636846734
 20
25.60076066650819
 30
0.0
 11
0.4842873631532681
 21
25.60076066650819
 31
0.0
  0
LINE
  5
215
330
1F
100
AcDbEntity
  8
0
  6
Continuous
 62
     7
370
    25
100
AcDbLine
 10
1.265712636846732
 20
5.892544331325822
 30
0.0
 11
0.4842873631532693
 21
5.892544331325822
 31
0.0
  0
LINE
  5
216
330
1F
100
AcDbEntity
  8
0
  6
Continuous
 62
     7
370
    25
100
AcDbLine
 10
1.265712636846732
 20
6.042544331325821
 30
0.0
 11
0.4842873631532694
 21
6.042544331325821
 31
0.0
  0
LINE
  5
217
330
1F
100
AcDbEntity
  8
0
  6
Continuous
 62
     7
370
    25
100
AcDbLine
 10
1.265712636846732
 20
25.45076066650818
 30
0.0
 11
0.4842873631532693
 21
25.45076066650818
 31
0.0
  0
LINE
  5
218
330
1F
100
AcDbEntity
  8
0
  6
Continuous
 62
     7
370
    25
100
AcDbLine
 10
0.4900000000115441
 20
14.86511222917508
 30
0.0
 11
1.259999999988455
 21
14.86511222917508
 31
0.0
  0
LINE
  5
219
330
1F
100
AcDbEntity
  8
0
  6
Continuous
 62
     7
370
    25
100
AcDbLine
 10
0.4900000000115439
 20
16.62819276865893
 30
0.0
 11
1.259999999988455
 21
16.62819276865893
 31
0.0
  0
LINE
  5
21A
330
1F
100
AcDbEntity
  8
0
  6
Continuous
 62
     7
370
    25
100
AcDbLine
 10
0.4900000000115441
 20
14.9991122291751
 30
0.0
 11
1.259999999988455
 21
14.9991122291751
 31
0.0
  0
LINE
  5
21B
330
1F
100
AcDbEntity
  8
0
  6
Continuous
 62
     7
370
    25
100
AcDbLine
 10
0.4900000000115439
 20
16.49419276865891
 30
0.0
 11
1.259999999988455
 21
16.49419276865891
 31
0.0
  0
LINE
  5
21C
330
1F
100
AcDbEntity
  8
0
  6
Continuous
 62
     7
370
    25
100
AcDbLine
 10
1.250000000000001
 20
0.0
 30
0.0
 11
0.500000000000001
 21
0.0
 31
0.0
  0
ARC
  5
21D
330
1F
100
AcDbEntity
  8
0
  6
Continuous
 62
     7
370
    25
100
AcDbCircle
 10
1.498741834019587
 20
26.24436883409479
 30
0.0
 40
0.2212581660103109
100
AcDbArc
 50
278.3080641087231
 51
81.6919358912998
  0
ARC
  5
21E
330
1F
100
AcDbEntity
  8
0
  6
Continuous
 62
     7
370
    25
100
AcDbCircle
 10
0.2512581659804126
 20
26.24436883409479
 30
0.0
 40
0.2212581660103097
100
AcDbArc
 50
98.30806410869965
 51
261.6919358912805
  0
ARC
  5
21F
330
1F
100
AcDbEntity
  8
0
  6
Continuous
 62
     7
370
    25
100
AcDbCircle
 10
1.498741834019581
 20
5.248936163739221
 30
0.0
 40
0.2212581660103113
100
AcDbArc
 50
278.308064108711
 51
81.69193589127782
  0
ARC
  5
220
330
1F
100
AcDbEntity
  8
0
  6
Continuous
 62
     7
370
    25
100
AcDbCircle
 10
0.2512581659804209
 20
5.248936163739221
 30
0.0
 40
0.2212581660103117
100
AcDbArc
 50
98.30806410872226
 51
261.6919358912921
  0
ARC
  5
221
330
1F
100
AcDbEntity
  8
0
  6
Continuous
 62
     7
370
    25
100
AcDbCircle
 10
0.3907866260741735
 20
15.746652498917
 30
0.0
 40
0.3607866260726422
100
AcDbArc
 50
115.625689094494
 51
244.3743109055078
  0
ARC
  5
222
330
1F
100
AcDbEntity
  8
0
  6
Continuous
 62
     7
370
    25
100
AcDbCircle
 10
1.359213373925829
 20
15.746652498917
 30
0.0
 40
0.3607866260726421
100
AcDbArc
 50
295.6256890944948
 51
64.37431090550605
  0
ARC
  5
223
330
1F
100
AcDbEntity
  8
0
  6
Continuous
 62
     7
370
    25
100
AcDbCircle
 10
-0.1026662774743669
 20
14.91892895707782
 30
0.0
 40
0.5446660327927978
100
AcDbArc
 50
284.0975547913326
 51
352.6300187904548
  0
ARC
  5
224
330
1F
100
AcDbEntity
  8
0
  6
Continuous
 62
     7
370
    25
100
AcDbCircle
 10
1.852666277474367
 20
14.91892895707782
 30
0.0
 40
0.5446660327927981
100
AcDbArc
 50
187.3699812095482
 51
255.9024452086704
  0
ARC
  5
225
330
1F
100
AcDbEntity
  8
0
  6
Continuous
 62
     7
370
    25
100
AcDbCircle
 10
-0.102666277474361
 20
16.57437604075619
 30
0.0
 40
0.5446660327927909
100
AcDbArc
 50
7.369981209546623
 51
75.90244520866935
  0
ARC
  5
226
330
1F
100
AcDbEntity
  8
0
  6
Continuous
 62
     7
370
    25
100
AcDbCircle
 10
1.852666277474359
 20
16.57437604075619
 30
0.0
 40
0.5446660327927906
100
AcDbArc
 50
104.0975547913306
 51
172.6300187904534
  0
ARC
  5
227
330
1F
100
AcDbEntity
  8
0
  6
Continuous
 62
     7
370
    25
100
AcDbCircle
 10
0.0435052814756349
 20
17.60234656372024
 30
0.0
 40
0.0627949281509325
100
AcDbArc
 50
273.0061319068245
 51
82.59109821826164
  0
ARC
  5
228
330
1F
100
AcDbEntity
  8
0
  6
Continuous
 62
     7
370
    25
100
AcDbCircle
 10
1.706494718524364
 20
17.60234656372024
 30
0.0
 40
0.0627949281509342
100
AcDbArc
 50
97.40890178173746
 51
266.9938680931788
  0
ARC
  5
229
330
1F
100
AcDbEntity
  8
0
  6
Continuous
 62
     7
370
    25
100
AcDbCircle
 10
0.0435052814756355
 20
13.89095843411377
 30
0.0
 40
0.062794928150929
100
AcDbArc
 50
277.4089017817396
 51
86.99386809317716
  0
ARC
  5
22A
330
1F
100
AcDbEntity
  8
0
  6
Continuous
 62
     7
370
    25
100
AcDbCircle
 10
1.706494718524365
 20
13.89095843411377
 30
0.0
 40
0.062794928150929
100
AcDbArc
 50
93.00613190682346
 51
262.5910982182629
  0
ARC
  5
22B
330
1F
100
AcDbEntity
  8
0
  6
Continuous
 62
     7
370
    25
100
AcDbCircle
 10
0.0579203731761642
 20
13.51595929124159
 30
0.0
 40
0.0627949281509221
100
AcDbArc
 50
277.4089017816785
 51
86.9938680933024
  0
ARC
  5
22C
330
1F
100
AcDbEntity
  8
0
  6
Continuous
 62
     7
370
    25
100
AcDbCircle
 10
1.692079626823837
 20
13.51595929124159
 30
0.0
 40
0.0627949281509221
100
AcDbArc
 50
93.00613190669883
 51
262.5910982183232
  0
ARC
  5
22D
330
1F
100
AcDbEntity
  8
0
  6
Continuous
 62
     7
370
    25
100
AcDbCircle
 10
0.0579203731761638
 20
17.97734570659242
 30
0.0
 40
0.0627949281509226
100
AcDbArc
 50
273.0061319066991
 51
82.5910982183228
  0
ARC
  5
22E
330
1F
100
AcDbEntity
  8
0
  6
Continuous
 62
     7
370
    25
100
AcDbCircle
 10
1.692079626823837
 20
17.97734570659242
 30
0.0
 40
0.0627949281509226
100
AcDbArc
 50
97.40890178167842
 51
266.9938680933029
  0
ARC
  5
22F
330
1F
100
AcDbEntity
  8
0
  6
Continuous
 62
     7
370
    25
100
AcDbCircle
 10
1.635816855648044
 20
25.61114653710364
 30
0.0
 40
0.3077278568626192
100
AcDbArc
 50
109.9712909044087
 51
178.3757799801577
  0
ARC
  5
230
330
1F
100
AcDbEntity
  8
0
  6
Continuous
 62
     7
370
    25
100
AcDbCircle
 10
0.1141831443519651
 20
25.61114653710364
 30
0.0
 40
0.3077278568626134
100
AcDbArc
 50
1.624220019841032
 51
70.02870909559213
  0
ARC
  5
231
330
1F
100
AcDbEntity
  8
0
  6
Continuous
 62
     7
370
    25
100
AcDbCircle
 10
1.635816855648045
 20
5.882158460730363
 30
0.0
 40
0.3077278568626206
100
AcDbArc
 50
181.6242200198432
 51
250.0287090955922
  0
ARC
  5
232
330
1F
100
AcDbEntity
  8
0
  6
Continuous
 62
     7
370
    25
100
AcDbCircle
 10
0.1141831443519571
 20
5.882158460730363
 30
0.0
 40
0.3077278568626207
100
AcDbArc
 50
289.971290904411
 51
358.37577998016
  0
ARC
  5
233
330
1F
100
AcDbEntity
  8
0
  6
Continuous
 62
     7
370
    25
100
AcDbCircle
 10
0.1256794402249671
 20
16.48928691384123
 30
0.0
 40
0.3120196671087815
100
AcDbArc
 50
290.4605942393525
 51
357.9530211285358
  0
ARC
  5
234
330
1F
100
AcDbEntity
  8
0
  6
Continuous
 62
     7
370
    25
100
AcDbCircle
 10
1.624320559775031
 20
16.48928691384122
 30
0.0
 40
0.3120196671087793
100
AcDbArc
 50
182.0469788714662
 51
249.5394057606509
  0
ARC
  5
235
330
1F
100
AcDbEntity
  8
0
  6
Continuous
 62
     7
370
    25
100
AcDbCircle
 10
0.1256794402249665
 20
15.00401808399278
 30
0.0
 40
0.312019667108781
100
AcDbArc
 50
2.046978871465834
 51
69.5394057606488
  0
ARC
  5
236
330
1F
100
AcDbEntity
  8
0
  6
Continuous
 62
     7
370
    25
100
AcDbCircle
 10
1.624320559775033
 20
15.00401808399278
 30
0.0
 40
0.3120196671087808
100
AcDbArc
 50
110.4605942393512
 51
177.9530211285342
  0
SPLINE
  5
2C7
330
1F
100
AcDbEntity
  8
0
  6
Continuous
 62
     7
370
    25
100
AcDbSpline
210
0.0
220
0.0
230
1.0
 70
    24
 71
     3
 72
    11
 73
     7
 74
     0
 42
0.000000001
 43
0.00000001
 40
0.0
 40
0.0
 40
0.0
 40
0.0
 40
0.1253116928736575
 40
0.3426386129371551
 40
0.5600332439329524
 40
0.9999999999999999
 40
0.9999999999999999
 40
0.9999999999999999
 40
0.9999999999999999
 10
6.250000000000002
 20
30.27262317039131
 30
0.0
 10
6.250000000000002
 20
30.27179517063631
 30
0.0
 10
6.250000000000002
 20
30.26953117849751
 30
0.0
 10
6.250000000000002
 20
30.28652864819971
 30
0.0
 10
6.250000000000002
 20
30.32413689403745
 30
0.0
 10
6.250000000000002
 20
30.37029499991311
 30
0.0
 10
6.250000000000002
 20
30.40118825362102
 30
0.0
  0
SPLINE
  5
2C8
330
1F
100
AcDbEntity
  8
0
  6
Continuous
 62
     7
370
    25
100
AcDbSpline
210
0.0
220
0.0
230
1.0
 70
     8
 71
     3
 72
    24
 73
    20
 74
     0
 42
0.000000001
 43
0.00000001
 40
0.0
 40
0.0
 40
0.0
 40
0.0
 40
0.1249999999999997
 40
0.1249999999999997
 40
0.2499999999999995
 40
0.2499999999999995
 40
0.3749999999999993
 40
0.3749999999999993
 40
0.4999999999999991
 40
0.4999999999999991
 40
0.5624999999999991
 40
0.5624999999999991
 40
0.6249999999999989
 40
0.6249999999999989
 40
0.7499999999999992
 40
0.7499999999999992
 40
0.8749999999999997
 40
0.8749999999999997
 40
1.0
 40
1.0
 40
1.0
 40
1.0
 10
6.250000000000001
 20
30.40118825362102
 30
0.0
 10
6.320376404776372
 20
30.38307577244082
 30
0.0
 10
6.391009012277252
 20
30.36597377571346
 30
0.0
 10
6.533031413596625
 20
30.33475618688554
 30
0.0
 10
6.604421250364303
 20
30.32064076418003
 30
0.0
 10
6.748300761376385
 20
30.29674776752934
 30
0.0
 10
6.820793805357073
 20
30.28698348409904
 30
0.0
 10
6.967281182193938
 20
30.27337612307585
 30
0.0
 10
7.04128308536021
 20
30.26956290340377
 30
0.0
 10
7.153631694329396
 20
30.26915083835853
 30
0.0
 10
7.191303774404878
 20
30.26989121406365
 30
0.0
 10
7.267099629198313
 20
30.27315348600428
 30
0.0
 10
7.304866206887503
 20
30.27566111128873
 30
0.0
 10
7.417362570602961
 20
30.28553260177763
 30
0.0
 10
7.491496360533212
 20
30.29525172656167
 30
0.0
 10
7.638498135585124
 20
30.31928864063611
 30
0.0
 10
7.711370296892047
 20
30.33359125785986
 30
0.0
 10
7.856257350251078
 20
30.36531094855506
 30
0.0
 10
7.928272253006371
 20
30.38272798314189
 30
0.0
 10
8.000000000000002
 20
30.40118825362102
 30
0.0
  0
SPLINE
  5
2C9
330
1F
100
AcDbEntity
  8
0
  6
Continuous
 62
     7
370
    25
100
AcDbSpline
210
0.0
220
0.0
230
1.0
 70
    24
 71
     3
 72
    11
 73
     7
 74
     0
 42
0.000000001
 43
0.00000001
 40
0.0
 40
0.0
 40
0.0
 40
0.0
 40
0.2786715149070172
 40
0.5572388201020749
 40
0.8413357571247592
 40
1.0
 40
1.0
 40
1.0
 40
1.0
 10
8.000000000000002
 20
30.40118825362102
 30
0.0
 10
8.000000000000002
 20
30.38130873888031
 30
0.0
 10
8.000000000000002
 20
30.34155714337902
 30
0.0
 10
8.000000000000002
 20
30.29704640355861
 30
0.0
 10
8.000000000000002
 20
30.2711272860957
 30
0.0
 10
8.000000000000002
 20
30.27222853567816
 30
0.0
 10
8.000000000000002
 20
30.27262317039131
 30
0.0
  0
SPLINE
  5
2CA
330
1F
100
AcDbEntity
  8
0
  6
Continuous
 62
     7
370
    25
100
AcDbSpline
210
0.0
220
0.0
230
1.0
 70
     8
 71
     3
 72
    24
 73
    20
 74
     0
 42
0.000000001
 43
0.00000001
 40
0.0
 40
0.0
 40
0.0
 40
0.0
 40
0.125
 40
0.125
 40
0.25
 40
0.25
 40
0.375
 40
0.375
 40
0.5
 40
0.5
 40
0.5625
 40
0.5625
 40
0.625
 40
0.625
 40
0.75
 40
0.75
 40
0.875
 40
0.875
 40
1.0
 40
1.0
 40
1.0
 40
1.0
 10
8.000000000000002
 20
4.818269695644896
 30
0.0
 10
7.92962359522363
 20
4.836382176825097
 30
0.0
 10
7.858990987722752
 20
4.853484173552453
 30
0.0
 10
7.716968586403379
 20
4.884701762380391
 30
0.0
 10
7.6455787496357
 20
4.898817185085887
 30
0.0
 10
7.501699238623617
 20
4.922710181736576
 30
0.0
 10
7.42920619464293
 20
4.932474465166885
 30
0.0
 10
7.282718817806066
 20
4.946081826190068
 30
0.0
 10
7.208716914639794
 20
4.949895045862165
 30
0.0
 10
7.096368305670608
 20
4.950307110907398
 30
0.0
 10
7.058696225595126
 20
4.949566735202273
 30
0.0
 10
6.982900370801691
 20
4.946304463261639
 30
0.0
 10
6.9451337931125
 20
4.943796837977196
 30
0.0
 10
6.832637429397042
 20
4.933925347488283
 30
0.0
 10
6.758503639466792
 20
4.924206222704248
 30
0.0
 10
6.611501864414881
 20
4.900169308629804
 30
0.0
 10
6.538629703107957
 20
4.885866691406063
 30
0.0
 10
6.393742649748926
 20
4.854147000710856
 30
0.0
 10
6.321727746993632
 20
4.836729966124024
 30
0.0
 10
6.250000000000002
 20
4.818269695644896
 30
0.0
  0
SPLINE
  5
2CB
330
1F
100
AcDbEntity
  8
0
  6
Continuous
 62
     7
370
    25
100
AcDbSpline
210
0.0
220
0.0
230
1.0
 70
    24
 71
     3
 72
    11
 73
     7
 74
     0
 42
0.000000001
 43
0.00000001
 40
0.0
 40
0.0
 40
0.0
 40
0.0
 40
0.1253116928736592
 40
0.3426386129371563
 40
0.5600332439329535
 40
1.0
 40
1.0
 40
1.0
 40
1.0
 10
8.000000000000002
 20
4.946834778874615
 30
0.0
 10
8.000000000000002
 20
4.947662778629613
 30
0.0
 10
8.000000000000002
 20
4.949926770768404
 30
0.0
 10
8.000000000000002
 20
4.932929301066213
 30
0.0
 10
8.000000000000002
 20
4.895321055228466
 30
0.0
 10
8.000000000000002
 20
4.849162949352804
 30
0.0
 10
8.000000000000002
 20
4.818269695644896
 30
0.0
  0
SPLINE
  5
2CC
330
1F
100
AcDbEntity
  8
0
  6
Continuous
 62
     7
370
    25
100
AcDbSpline
210
0.0
220
0.0
230
1.0
 70
    24
 71
     3
 72
    11
 73
     7
 74
     0
 42
0.000000001
 43
0.00000001
 40
0.0
 40
0.0
 40
0.0
 40
0.0
 40
0.2782880712771512
 40
0.5572234003944581
 40
0.8399757962232823
 40
1.0
 40
1.0
 40
1.0
 40
1.0
 10
6.250000000000002
 20
4.818269695644896
 30
0.0
 10
6.250000000000002
 20
4.838098798871192
 30
0.0
 10
6.250000000000002
 20
4.877803124952508
 30
0.0
 10
6.250000000000002
 20
4.922235067411303
 30
0.0
 10
6.250000000000002
 20
4.948662845152763
 30
0.0
 10
6.250000000000002
 20
4.947383890819939
 30
0.0
 10
6.250000000000002
 20
4.946921663030666
 30
0.0
  0
LINE
  5
2CD
330
1F
100
AcDbEntity
  8
0
  6
Continuous
 62
     7
370
    25
100
AcDbLine
 10
6.250000000000002
 20
30.2692720222045
 30
0.0
 11
6.469287363153494
 21
30.18945794926591
 31
0.0
  0
LINE
  5
2CE
330
1F
100
AcDbEntity
  8
0
  6
Continuous
 62
     7
370
    25
100
AcDbLine
 10
7.780712636846509
 20
30.18945794926591
 30
0.0
 11
8.000000000000002
 21
30.2692720222045
 31
0.0
  0
LINE
  5
2CF
330
1F
100
AcDbEntity
  8
0
  6
Continuous
 62
     7
370
    25
100
AcDbLine
 10
8.000000000000002
 20
4.95018592706142
 30
0.0
 11
7.780712636846539
 21
5.030000000000001
 31
0.0
  0
LINE
  5
2D0
330
1F
100
AcDbEntity
  8
0
  6
Continuous
 62
     7
370
    25
100
AcDbLine
 10
6.469287363153465
 20
5.030000000000001
 30
0.0
 11
6.250000000000002
 21
4.95018592706142
 31
0.0
  0
LINE
  5
2D1
330
1F
100
AcDbEntity
  8
0
  6
Continuous
 62
     7
370
    25
100
AcDbLine
 10
7.969999999962329
 20
18.96571452162615
 30
0.0
 11
7.953201574704829
 21
19.40271452163147
 31
0.0
  0
LINE
  5
2D2
330
1F
100
AcDbEntity
  8
0
  6
Continuous
 62
     7
370
    25
100
AcDbLine
 10
6.296798425295171
 20
19.40271452163147
 30
0.0
 11
6.280000000037671
 21
18.96571452162615
 31
0.0
  0
LINE
  5
2D3
330
1F
100
AcDbEntity
  8
0
  6
Continuous
 62
     7
370
    25
100
AcDbLine
 10
6.280000000037672
 20
16.25374342763975
 30
0.0
 11
6.296798425295171
 21
15.81674342763443
 31
0.0
  0
LINE
  5
2D4
330
1F
100
AcDbEntity
  8
0
  6
Continuous
 62
     7
370
    25
100
AcDbLine
 10
7.95320157470483
 20
15.81674342763443
 30
0.0
 11
7.969999999962329
 21
16.25374342763975
 31
0.0
  0
LINE
  5
2D5
330
1F
100
AcDbEntity
  8
0
  6
Continuous
 62
     7
370
    25
100
AcDbLine
 10
6.301602666512933
 20
15.69176424774043
 30
0.0
 11
6.311213516995561
 21
15.44174428476225
 31
0.0
  0
LINE
  5
2D6
330
1F
100
AcDbEntity
  8
0
  6
Continuous
 62
     7
370
    25
100
AcDbLine
 10
7.938786483004439
 20
15.44174428476225
 30
0.0
 11
7.948397333487069
 21
15.69176424774043
 31
0.0
  0
LINE
  5
2D7
330
1F
100
AcDbEntity
  8
0
  6
Continuous
 62
     7
370
    25
100
AcDbLine
 10
7.948397333487068
 20
19.52769370152547
 30
0.0
 11
7.938786483004439
 21
19.77771366450365
 31
0.0
  0
LINE
  5
2D8
330
1F
100
AcDbEntity
  8
0
  6
Continuous
 62
     7
370
    25
100
AcDbLine
 10
6.311213516995561
 20
19.77771366450365
 30
0.0
 11
6.301602666512933
 21
19.52769370152547
 31
0.0
  0
LINE
  5
2D9
330
1F
100
AcDbEntity
  8
0
  6
Continuous
 62
     7
370
    25
100
AcDbLine
 10
6.316017758213394
 20
15.31676510486825
 30
0.0
 11
6.67178736315352
 21
6.061652498917004
 31
0.0
  0
LINE
  5
2DA
330
1F
100
AcDbEntity
  8
0
  6
Continuous
 62
     7
370
    25
100
AcDbLine
 10
7.578212636846484
 20
6.061652498917004
 30
0.0
 11
7.933982241786608
 21
15.31676510486825
 31
0.0
  0
LINE
  5
2DB
330
1F
100
AcDbEntity
  8
0
  6
Continuous
 62
     7
370
    25
100
AcDbLine
 10
7.933982241786607
 20
19.90269284439765
 30
0.0
 11
7.578212636846342
 21
29.1578054503489
 31
0.0
  0
LINE
  5
2DC
330
1F
100
AcDbEntity
  8
0
  6
Continuous
 62
     7
370
    25
100
AcDbLine
 10
6.671787363153657
 20
29.1578054503489
 30
0.0
 11
6.316017758213393
 21
19.90269284439765
 31
0.0
  0
LINE
  5
2DD
330
1F
100
AcDbEntity
  8
0
  6
Continuous
 62
     7
370
    25
100
AcDbLine
 10
7.780712636846591
 20
29.62652178553111
 30
0.0
 11
7.780712636846591
 21
29.75158562178747
 31
0.0
  0
LINE
  5
2DE
330
1F
100
AcDbEntity
  8
0
  6
Continuous
 62
     7
370
    25
100
AcDbLine
 10
6.469287363153413
 20
29.75158562178747
 30
0.0
 11
6.469287363153413
 21
29.62652178553111
 31
0.0
  0
LINE
  5
2DF
330
1F
100
AcDbEntity
  8
0
  6
Continuous
 62
     7
370
    25
100
AcDbLine
 10
7.780712636846588
 20
5.467872327478433
 30
0.0
 11
7.780712636846588
 21
5.592936163734787
 31
0.0
  0
LINE
  5
2E0
330
1F
100
AcDbEntity
  8
0
  6
Continuous
 62
     7
370
    25
100
AcDbLine
 10
6.469287363153415
 20
5.592936163734787
 30
0.0
 11
6.469287363153415
 21
5.467872327478433
 31
0.0
  0
LINE
  5
2E1
330
1F
100
AcDbEntity
  8
0
  6
Continuous
 62
     7
370
    25
100
AcDbLine
 10
6.484750000001618
 20
17.28442978791898
 30
0.0
 11
6.484750000001618
 21
17.15942978791889
 31
0.0
  0
LINE
  5
2E2
330
1F
100
AcDbEntity
  8
0
  6
Continuous
 62
     7
370
    25
100
AcDbLine
 10
7.765249999998384
 20
17.15942978791889
 30
0.0
 11
7.765249999998384
 21
17.28442978791898
 31
0.0
  0
LINE
  5
2E3
330
1F
100
AcDbEntity
  8
0
  6
Continuous
 62
     7
370
    25
100
AcDbLine
 10
6.484750000001617
 20
18.06002816134702
 30
0.0
 11
6.484750000001617
 21
17.93502816134693
 31
0.0
  0
LINE
  5
2E4
330
1F
100
AcDbEntity
  8
0
  6
Continuous
 62
     7
370
    25
100
AcDbLine
 10
7.765249999998384
 20
17.93502816134693
 30
0.0
 11
7.765249999998384
 21
18.06002816134702
 31
0.0
  0
LINE
  5
2E5
330
1F
100
AcDbEntity
  8
0
  6
Continuous
 62
     7
370
    25
100
AcDbLine
 10
6.671787363153292
 20
29.34602178553126
 30
0.0
 11
6.734287363153269
 21
29.32691361794009
 31
0.0
  0
LINE
  5
2E6
330
1F
100
AcDbEntity
  8
0
  6
Continuous
 62
     7
370
    25
100
AcDbLine
 10
7.515712636846734
 20
29.32691361794009
 30
0.0
 11
7.578212636846711
 21
29.34602178553126
 31
0.0
  0
LINE
  5
2E7
330
1F
100
AcDbEntity
  8
0
  6
Continuous
 62
     7
370
    25
100
AcDbLine
 10
7.57821263684671
 20
5.873436163734638
 30
0.0
 11
7.515712636846733
 21
5.892544331325822
 31
0.0
  0
LINE
  5
2E8
330
1F
100
AcDbEntity
  8
0
  6
Continuous
 62
     7
370
    25
100
AcDbLine
 10
6.73428736315327
 20
5.892544331325822
 30
0.0
 11
6.671787363153293
 21
5.873436163734638
 31
0.0
  0
LINE
  5
2E9
330
1F
100
AcDbEntity
  8
0
  6
Continuous
 62
     7
370
    25
100
AcDbLine
 10
6.671787363153364
 20
6.061652498917004
 30
0.0
 11
6.73428736315327
 21
6.042544331325821
 31
0.0
  0
LINE
  5
2EA
330
1F
100
AcDbEntity
  8
0
  6
Continuous
 62
     7
370
    25
100
AcDbLine
 10
7.515712636846733
 20
6.042544331325821
 30
0.0
 11
7.57821263684664
 21
6.061652498917004
 31
0.0
  0
LINE
  5
2EB
330
1F
100
AcDbEntity
  8
0
  6
Continuous
 62
     7
370
    25
100
AcDbLine
 10
7.578212636846346
 20
29.15780545034899
 30
0.0
 11
7.515712636846733
 21
29.17691361794009
 31
0.0
  0
LINE
  5
2EC
330
1F
100
AcDbEntity
  8
0
  6
Continuous
 62
     7
370
    25
100
AcDbLine
 10
6.73428736315327
 20
29.17691361794009
 30
0.0
 11
6.671787363153658
 21
29.15780545034899
 31
0.0
  0
LINE
  5
2ED
330
1F
100
AcDbEntity
  8
0
  6
Continuous
 62
     7
370
    25
100
AcDbLine
 10
6.687500000009119
 20
18.50732010515157
 30
0.0
 11
6.740000000011544
 21
18.49126924437488
 31
0.0
  0
LINE
  5
2EE
330
1F
100
AcDbEntity
  8
0
  6
Continuous
 62
     7
370
    25
100
AcDbLine
 10
7.509999999988456
 20
18.49126924437488
 30
0.0
 11
7.562499999990882
 21
18.50732010515157
 31
0.0
  0
LINE
  5
2EF
330
1F
100
AcDbEntity
  8
0
  6
Continuous
 62
     7
370
    25
100
AcDbLine
 10
7.562499999990881
 20
16.71213784411433
 30
0.0
 11
7.509999999988457
 21
16.72818870489103
 31
0.0
  0
LINE
  5
2F0
330
1F
100
AcDbEntity
  8
0
  6
Continuous
 62
     7
370
    25
100
AcDbLine
 10
6.740000000011545
 20
16.72818870489103
 30
0.0
 11
6.68750000000912
 21
16.71213784411433
 31
0.0
  0
LINE
  5
2F1
330
1F
100
AcDbEntity
  8
0
  6
Continuous
 62
     7
370
    25
100
AcDbLine
 10
7.562499999989694
 20
18.34121838359795
 30
0.0
 11
7.509999999988456
 21
18.35726924437486
 31
0.0
  0
LINE
  5
2F2
330
1F
100
AcDbEntity
  8
0
  6
Continuous
 62
     7
370
    25
100
AcDbLine
 10
6.740000000011544
 20
18.35726924437486
 30
0.0
 11
6.687500000010306
 21
18.34121838359795
 31
0.0
  0
LINE
  5
2F3
330
1F
100
AcDbEntity
  8
0
  6
Continuous
 62
     7
370
    25
100
AcDbLine
 10
6.687500000010307
 20
16.87823956566795
 30
0.0
 11
6.740000000011545
 21
16.86218870489105
 31
0.0
  0
LINE
  5
2F4
330
1F
100
AcDbEntity
  8
0
  6
Continuous
 62
     7
370
    25
100
AcDbLine
 10
7.509999999988457
 20
16.86218870489105
 30
0.0
 11
7.562499999989694
 21
16.87823956566795
 31
0.0
  0
LINE
  5
2F5
330
1F
100
AcDbEntity
  8
0
  6
Continuous
 62
     7
370
    25
100
AcDbLine
 10
7.515712636846734
 20
29.17691361794009
 30
0.0
 11
7.515712636846734
 21
29.32691361794009
 31
0.0
  0
LINE
  5
2F6
330
1F
100
AcDbEntity
  8
0
  6
Continuous
 62
     7
370
    25
100
AcDbLine
 10
6.734287363153269
 20
29.32691361794009
 30
0.0
 11
6.734287363153269
 21
29.17691361794009
 31
0.0
  0
LINE
  5
2F7
330
1F
100
AcDbEntity
  8
0
  6
Continuous
 62
     7
370
    25
100
AcDbLine
 10
7.515712636846733
 20
5.892544331325822
 30
0.0
 11
7.515712636846733
 21
6.042544331325821
 31
0.0
  0
LINE
  5
2F8
330
1F
100
AcDbEntity
  8
0
  6
Continuous
 62
     7
370
    25
100
AcDbLine
 10
6.73428736315327
 20
6.042544331325821
 30
0.0
 11
6.73428736315327
 21
5.892544331325822
 31
0.0
  0
LINE
  5
2F9
330
1F
100
AcDbEntity
  8
0
  6
Continuous
 62
     7
370
    25
100
AcDbLine
 10
6.740000000011545
 20
16.86218870489105
 30
0.0
 11
6.740000000011545
 21
16.72818870489103
 31
0.0
  0
LINE
  5
2FA
330
1F
100
AcDbEntity
  8
0
  6
Continuous
 62
     7
370
    25
100
AcDbLine
 10
7.509999999988457
 20
16.72818870489103
 30
0.0
 11
7.509999999988457
 21
16.86218870489105
 31
0.0
  0
LINE
  5
2FB
330
1F
100
AcDbEntity
  8
0
  6
Continuous
 62
     7
370
    25
100
AcDbLine
 10
6.740000000011544
 20
18.49126924437488
 30
0.0
 11
6.740000000011544
 21
18.35726924437486
 31
0.0
  0
LINE
  5
2FC
330
1F
100
AcDbEntity
  8
0
  6
Continuous
 62
     7
370
    25
100
AcDbLine
 10
7.509999999988456
 20
18.35726924437486
 30
0.0
 11
7.509999999988456
 21
18.49126924437488
 31
0.0
  0
LINE
  5
2FD
330
1F
100
AcDbEntity
  8
0
  6
Continuous
 62
     7
370
    25
100
AcDbLine
 10
6.750000000000002
 20
0.4999999999999991
 30
0.0
 11
6.750000000000002
 21
0.0
 31
0.0
  0
LINE
  5
2FE
330
1F
100
AcDbEntity
  8
0
  6
Continuous
 62
     7
370
    25
100
AcDbLine
 10
7.500000000000002
 20
0.0
 30
0.0
 11
7.500000000000002
 21
0.4999999999999991
 31
0.0
  0
LINE
  5
2FF
330
1F
100
AcDbEntity
  8
0
  6
Continuous
 62
     7
370
    25
100
AcDbLine
 10
6.469287363153494
 20
30.18945794926591
 30
0.0
 11
7.780712636846509
 21
30.18945794926591
 31
0.0
  0
LINE
  5
300
330
1F
100
AcDbEntity
  8
0
  6
Continuous
 62
     7
370
    25
100
AcDbLine
 10
6.250000000000002
 20
36.00045794926591
 30
0.0
 11
8.000000000000002
 21
36.00045794926591
 31
0.0
  0
LINE
  5
301
330
1F
100
AcDbEntity
  8
0
  6
Continuous
 62
     7
370
    25
100
AcDbLine
 10
6.250000000000002
 20
36.00045794926591
 30
0.0
 11
6.250000000000002
 21
30.40118825362102
 31
0.0
  0
LINE
  5
302
330
1F
100
AcDbEntity
  8
0
  6
Continuous
 62
     7
370
    25
100
AcDbLine
 10
8.000000000000002
 20
36.00045794926591
 30
0.0
 11
8.000000000000002
 21
30.40118825362102
 31
0.0
  0
LINE
  5
303
330
1F
100
AcDbEntity
  8
0
  6
Continuous
 62
     7
370
    25
100
AcDbLine
 10
8.000000000000002
 20
0.4999999999999991
 30
0.0
 11
8.000000000000002
 21
4.818269695644896
 31
0.0
  0
LINE
  5
304
330
1F
100
AcDbEntity
  8
0
  6
Continuous
 62
     7
370
    25
100
AcDbLine
 10
6.250000000000002
 20
0.4999999999999991
 30
0.0
 11
6.250000000000002
 21
4.818269695644896
 31
0.0
  0
LINE
  5
305
330
1F
100
AcDbEntity
  8
0
  6
Continuous
 62
     7
370
    25
100
AcDbLine
 10
8.000000000000002
 20
0.4999999999999991
 30
0.0
 11
6.250000000000002
 21
0.4999999999999991
 31
0.0
  0
LINE
  5
306
330
1F
100
AcDbEntity
  8
0
  6
Continuous
 62
     7
370
    25
100
AcDbLine
 10
6.469287363153464
 20
5.030000000000001
 30
0.0
 11
7.780712636846539
 21
5.030000000000001
 31
0.0
  0
LINE
  5
307
330
1F
100
AcDbEntity
  8
0
  6
Continuous
 62
     7
370
    25
100
AcDbLine
 10
7.780712636846592
 20
29.75158562178747
 30
0.0
 11
6.469287363153412
 21
29.75158562178747
 31
0.0
  0
LINE
  5
308
330
1F
100
AcDbEntity
  8
0
  6
Continuous
 62
     7
370
    25
100
AcDbLine
 10
7.780712636846588
 20
5.467872327478433
 30
0.0
 11
6.469287363153415
 21
5.467872327478433
 31
0.0
  0
LINE
  5
309
330
1F
100
AcDbEntity
  8
0
  6
Continuous
 62
     7
370
    25
100
AcDbLine
 10
6.484750000001617
 20
17.93502816134693
 30
0.0
 11
7.765249999998384
 21
17.93502816134693
 31
0.0
  0
LINE
  5
30A
330
1F
100
AcDbEntity
  8
0
  6
Continuous
 62
     7
370
    25
100
AcDbLine
 10
6.484750000001617
 20
17.28442978791898
 30
0.0
 11
7.765249999998384
 21
17.28442978791898
 31
0.0
  0
LINE
  5
30B
330
1F
100
AcDbEntity
  8
0
  6
Continuous
 62
     7
370
    25
100
AcDbLine
 10
6.296798425295171
 20
19.40271452163147
 30
0.0
 11
7.95320157470483
 21
19.40271452163147
 31
0.0
  0
LINE
  5
30C
330
1F
100
AcDbEntity
  8
0
  6
Continuous
 62
     7
370
    25
100
AcDbLine
 10
6.280000000037671
 20
18.96571452162615
 30
0.0
 11
7.969999999962329
 21
18.96571452162615
 31
0.0
  0
LINE
  5
30D
330
1F
100
AcDbEntity
  8
0
  6
Continuous
 62
     7
370
    25
100
AcDbLine
 10
6.687500000009119
 20
18.50732010515157
 30
0.0
 11
7.562499999990882
 21
18.50732010515157
 31
0.0
  0
LINE
  5
30E
330
1F
100
AcDbEntity
  8
0
  6
Continuous
 62
     7
370
    25
100
AcDbLine
 10
6.280000000037672
 20
16.25374342763975
 30
0.0
 11
7.969999999962329
 21
16.25374342763975
 31
0.0
  0
LINE
  5
30F
330
1F
100
AcDbEntity
  8
0
  6
Continuous
 62
     7
370
    25
100
AcDbLine
 10
6.296798425295171
 20
15.81674342763443
 30
0.0
 11
7.953201574704831
 21
15.81674342763443
 31
0.0
  0
LINE
  5
310
330
1F
100
AcDbEntity
  8
0
  6
Continuous
 62
     7
370
    25
100
AcDbLine
 10
6.68750000000912
 20
16.71213784411433
 30
0.0
 11
7.562499999990881
 21
16.71213784411433
 31
0.0
  0
LINE
  5
311
330
1F
100
AcDbEntity
  8
0
  6
Continuous
 62
     7
370
    25
100
AcDbLine
 10
6.301602666512933
 20
19.52769370152547
 30
0.0
 11
7.948397333487069
 21
19.52769370152547
 31
0.0
  0
LINE
  5
312
330
1F
100
AcDbEntity
  8
0
  6
Continuous
 62
     7
370
    25
100
AcDbLine
 10
6.301602666512933
 20
15.69176424774043
 30
0.0
 11
7.948397333487069
 21
15.69176424774043
 31
0.0
  0
LINE
  5
313
330
1F
100
AcDbEntity
  8
0
  6
Continuous
 62
     7
370
    25
100
AcDbLine
 10
6.311213516995562
 20
15.44174428476225
 30
0.0
 11
7.93878648300444
 21
15.44174428476225
 31
0.0
  0
LINE
  5
314
330
1F
100
AcDbEntity
  8
0
  6
Continuous
 62
     7
370
    25
100
AcDbLine
 10
6.311213516995561
 20
19.77771366450365
 30
0.0
 11
7.938786483004439
 21
19.77771366450365
 31
0.0
  0
LINE
  5
315
330
1F
100
AcDbEntity
  8
0
  6
Continuous
 62
     7
370
    25
100
AcDbLine
 10
6.316017758213394
 20
15.31676510486825
 30
0.0
 11
7.933982241786608
 21
15.31676510486825
 31
0.0
  0
LINE
  5
316
330
1F
100
AcDbEntity
  8
0
  6
Continuous
 62
     7
370
    25
100
AcDbLine
 10
6.316017758213393
 20
19.90269284439766
 30
0.0
 11
7.933982241786607
 21
19.90269284439766
 31
0.0
  0
LINE
  5
317
330
1F
100
AcDbEntity
  8
0
  6
Continuous
 62
     7
370
    25
100
AcDbLine
 10
7.57821263684664
 20
6.061652498917004
 30
0.0
 11
6.671787363153364
 21
6.061652498917004
 31
0.0
  0
LINE
  5
318
330
1F
100
AcDbEntity
  8
0
  6
Continuous
 62
     7
370
    25
100
AcDbLine
 10
6.671787363153657
 20
29.1578054503489
 30
0.0
 11
7.578212636846342
 21
29.1578054503489
 31
0.0
  0
LINE
  5
319
330
1F
100
AcDbEntity
  8
0
  6
Continuous
 62
     7
370
    25
100
AcDbLine
 10
7.780712636846591
 20
29.62652178553111
 30
0.0
 11
6.469287363153413
 21
29.62652178553111
 31
0.0
  0
LINE
  5
31A
330
1F
100
AcDbEntity
  8
0
  6
Continuous
 62
     7
370
    25
100
AcDbLine
 10
7.578212636846711
 20
29.34602178553126
 30
0.0
 11
6.671787363153292
 21
29.34602178553126
 31
0.0
  0
LINE
  5
31B
330
1F
100
AcDbEntity
  8
0
  6
Continuous
 62
     7
370
    25
100
AcDbLine
 10
7.780712636846587
 20
5.592936163734787
 30
0.0
 11
6.469287363153416
 21
5.592936163734787
 31
0.0
  0
LINE
  5
31C
330
1F
100
AcDbEntity
  8
0
  6
Continuous
 62
     7
370
    25
100
AcDbLine
 10
7.57821263684671
 20
5.873436163734638
 30
0.0
 11
6.671787363153293
 21
5.873436163734638
 31
0.0
  0
LINE
  5
31D
330
1F
100
AcDbEntity
  8
0
  6
Continuous
 62
     7
370
    25
100
AcDbLine
 10
6.484750000001618
 20
17.15942978791889
 30
0.0
 11
7.765249999998384
 21
17.15942978791889
 31
0.0
  0
LINE
  5
31E
330
1F
100
AcDbEntity
  8
0
  6
Continuous
 62
     7
370
    25
100
AcDbLine
 10
6.484750000001617
 20
18.06002816134702
 30
0.0
 11
7.765249999998384
 21
18.06002816134702
 31
0.0
  0
LINE
  5
31F
330
1F
100
AcDbEntity
  8
0
  6
Continuous
 62
     7
370
    25
100
AcDbLine
 10
6.687500000010306
 20
18.34121838359795
 30
0.0
 11
7.562499999989694
 21
18.34121838359795
 31
0.0
  0
LINE
  5
320
330
1F
100
AcDbEntity
  8
0
  6
Continuous
 62
     7
370
    25
100
AcDbLine
 10
6.687500000010307
 20
16.87823956566795
 30
0.0
 11
7.562499999989694
 21
16.87823956566795
 31
0.0
  0
LINE
  5
321
330
1F
100
AcDbEntity
  8
0
  6
Continuous
 62
     7
370
    25
100
AcDbLine
 10
7.515712636846734
 20
29.32691361794009
 30
0.0
 11
6.734287363153269
 21
29.32691361794009
 31
0.0
  0
LINE
  5
322
330
1F
100
AcDbEntity
  8
0
  6
Continuous
 62
     7
370
    25
100
AcDbLine
 10
7.515712636846733
 20
5.892544331325822
 30
0.0
 11
6.73428736315327
 21
5.892544331325822
 31
0.0
  0
LINE
  5
323
330
1F
100
AcDbEntity
  8
0
  6
Continuous
 62
     7
370
    25
100
AcDbLine
 10
7.515712636846733
 20
6.042544331325821
 30
0.0
 11
6.73428736315327
 21
6.042544331325821
 31
0.0
  0
LINE
  5
324
330
1F
100
AcDbEntity
  8
0
  6
Continuous
 62
     7
370
    25
100
AcDbLine
 10
7.515712636846733
 20
29.17691361794009
 30
0.0
 11
6.73428736315327
 21
29.17691361794009
 31
0.0
  0
LINE
  5
325
330
1F
100
AcDbEntity
  8
0
  6
Continuous
 62
     7
370
    25
100
AcDbLine
 10
6.740000000011544
 20
18.49126924437488
 30
0.0
 11
7.509999999988456
 21
18.49126924437488
 31
0.0
  0
LINE
  5
326
330
1F
100
AcDbEntity
  8
0
  6
Continuous
 62
     7
370
    25
100
AcDbLine
 10
6.740000000011545
 20
16.72818870489103
 30
0.0
 11
7.509999999988457
 21
16.72818870489103
 31
0.0
  0
LINE
  5
327
330
1F
100
AcDbEntity
  8
0
  6
Continuous
 62
     7
370
    25
100
AcDbLine
 10
6.740000000011544
 20
18.35726924437486
 30
0.0
 11
7.509999999988456
 21
18.35726924437486
 31
0.0
  0
LINE
  5
328
330
1F
100
AcDbEntity
  8
0
  6
Continuous
 62
     7
370
    25
100
AcDbLine
 10
6.740000000011545
 20
16.86218870489105
 30
0.0
 11
7.509999999988457
 21
16.86218870489105
 31
0.0
  0
LINE
  5
329
330
1F
100
AcDbEntity
  8
0
  6
Continuous
 62
     7
370
    25
100
AcDbLine
 10
7.500000000000002
 20
0.0
 30
0.0
 11
6.750000000000002
 21
0.0
 31
0.0
  0
ARC
  5
32A
330
1F
100
AcDbEntity
  8
0
  6
Continuous
 62
     7
370
    25
100
AcDbCircle
 10
7.748741834019588
 20
29.97052178552669
 30
0.0
 40
0.2212581660103162
100
AcDbArc
 50
278.3080641087232
 51
81.69193589129985
  0
ARC
  5
32B
330
1F
100
AcDbEntity
  8
0
  6
Continuous
 62
     7
370
    25
100
AcDbCircle
 10
6.501258165980413
 20
29.97052178552669
 30
0.0
 40
0.221258166010316
100
AcDbArc
 50
98.30806410869968
 51
261.6919358912806
  0
ARC
  5
32C
330
1F
100
AcDbEntity
  8
0
  6
Continuous
 62
     7
370
    25
100
AcDbCircle
 10
7.748741834019582
 20
5.248936163739221
 30
0.0
 40
0.2212581660103113
100
AcDbArc
 50
278.308064108711
 51
81.69193589127782
  0
ARC
  5
32D
330
1F
100
AcDbEntity
  8
0
  6
Continuous
 62
     7
370
    25
100
AcDbCircle
 10
6.501258165980422
 20
5.248936163739221
 30
0.0
 40
0.2212581660103117
100
AcDbArc
 50
98.3080641087224
 51
261.691935891292
  0
ARC
  5
32E
330
1F
100
AcDbEntity
  8
0
  6
Continuous
 62
     7
370
    25
100
AcDbCircle
 10
6.640786626074171
 20
17.60972897463295
 30
0.0
 40
0.3607866260726432
100
AcDbArc
 50
115.6256890944937
 51
244.3743109055079
  0
ARC
  5
32F
330
1F
100
AcDbEntity
  8
0
  6
Continuous
 62
     7
370
    25
100
AcDbCircle
 10
7.609213373925829
 20
17.60972897463295
 30
0.0
 40
0.3607866260726432
100
AcDbArc
 50
295.625689094495
 51
64.37431090550622
  0
ARC
  5
330
330
1F
100
AcDbEntity
  8
0
  6
Continuous
 62
     7
370
    25
100
AcDbCircle
 10
6.147333722525637
 20
18.43745251647213
 30
0.0
 40
0.5446660327927961
100
AcDbArc
 50
7.369981209546933
 51
75.90244520866929
  0
ARC
  5
331
330
1F
100
AcDbEntity
  8
0
  6
Continuous
 62
     7
370
    25
100
AcDbCircle
 10
8.102666277474368
 20
18.43745251647213
 30
0.0
 40
0.5446660327928025
100
AcDbArc
 50
104.0975547913309
 51
172.6300187904524
  0
ARC
  5
332
330
1F
100
AcDbEntity
  8
0
  6
Continuous
 62
     7
370
    25
100
AcDbCircle
 10
6.147333722525633
 20
16.78200543279378
 30
0.0
 40
0.5446660327928026
100
AcDbArc
 50
284.0975547913325
 51
352.6300187904539
  0
ARC
  5
333
330
1F
100
AcDbEntity
  8
0
  6
Continuous
 62
     7
370
    25
100
AcDbCircle
 10
8.102666277474363
 20
16.78200543279377
 30
0.0
 40
0.5446660327927978
100
AcDbArc
 50
187.3699812095488
 51
255.9024452086712
  0
ARC
  5
334
330
1F
100
AcDbEntity
  8
0
  6
Continuous
 62
     7
370
    25
100
AcDbCircle
 10
6.293505281475635
 20
19.46542303943619
 30
0.0
 40
0.0627949281509299
100
AcDbArc
 50
273.0061319068245
 51
82.59109821826051
  0
ARC
  5
335
330
1F
100
AcDbEntity
  8
0
  6
Continuous
 62
     7
370
    25
100
AcDbCircle
 10
7.956494718524363
 20
19.46542303943619
 30
0.0
 40
0.0627949281509287
100
AcDbArc
 50
97.4089017817371
 51
266.9938680931803
  0
ARC
  5
336
330
1F
100
AcDbEntity
  8
0
  6
Continuous
 62
     7
370
    25
100
AcDbCircle
 10
6.293505281475635
 20
15.75403490982972
 30
0.0
 40
0.062794928150929
100
AcDbArc
 50
277.4089017817403
 51
86.99386809317704
  0
ARC
  5
337
330
1F
100
AcDbEntity
  8
0
  6
Continuous
 62
     7
370
    25
100
AcDbCircle
 10
7.956494718524366
 20
15.75403490982972
 30
0.0
 40
0.0627949281509288
100
AcDbArc
 50
93.00613190682306
 51
262.5910982182638
  0
ARC
  5
338
330
1F
100
AcDbEntity
  8
0
  6
Continuous
 62
     7
370
    25
100
AcDbCircle
 10
6.307920373176166
 20
15.37903576695754
 30
0.0
 40
0.0627949281509208
100
AcDbArc
 50
277.4089017816776
 51
86.99386809330402
  0
ARC
  5
339
330
1F
100
AcDbEntity
  8
0
  6
Continuous
 62
     7
370
    25
100
AcDbCircle
 10
7.942079626823837
 20
15.37903576695754
 30
0.0
 40
0.0627949281509209
100
AcDbArc
 50
93.00613190669841
 51
262.591098218325
  0
ARC
  5
33A
330
1F
100
AcDbEntity
  8
0
  6
Continuous
 62
     7
370
    25
100
AcDbCircle
 10
6.307920373176165
 20
19.84042218230837
 30
0.0
 40
0.0627949281509244
100
AcDbArc
 50
273.0061319066983
 51
82.59109821832443
  0
ARC
  5
33B
330
1F
100
AcDbEntity
  8
0
  6
Continuous
 62
     7
370
    25
100
AcDbCircle
 10
7.942079626823838
 20
19.84042218230837
 30
0.0
 40
0.0627949281509226
100
AcDbArc
 50
97.40890178167881
 51
266.9938680933025
  0
ARC
  5
33C
330
1F
100
AcDbEntity
  8
0
  6
Continuous
 62
     7
370
    25
100
AcDbCircle
 10
7.885816855648038
 20
29.33729948853554
 30
0.0
 40
0.3077278568626137
100
AcDbArc
 50
109.9712909044079
 51
178.375779980159
  0
ARC
  5
33D
330
1F
100
AcDbEntity
  8
0
  6
Continuous
 62
     7
370
    25
100
AcDbCircle
 10
6.364183144351964
 20
29.33729948853554
 30
0.0
 40
0.3077278568626142
100
AcDbArc
 50
1.62422001984103
 51
70.0287090955918
  0
ARC
  5
33E
330
1F
100
AcDbEntity
  8
0
  6
Continuous
 62
     7
370
    25
100
AcDbCircle
 10
7.885816855648045
 20
5.882158460730363
 30
0.0
 40
0.3077278568626206
100
AcDbArc
 50
181.6242200198432
 51
250.0287090955922
  0
ARC
  5
33F
330
1F
100
AcDbEntity
  8
0
  6
Continuous
 62
     7
370
    25
100
AcDbCircle
 10
6.364183144351958
 20
5.882158460730363
 30
0.0
 40
0.3077278568626207
100
AcDbArc
 50
289.9712909044111
 51
358.37577998016
  0
ARC
  5
340
330
1F
100
AcDbEntity
  8
0
  6
Continuous
 62
     7
370
    25
100
AcDbCircle
 10
6.375679440224971
 20
18.35236338955717
 30
0.0
 40
0.3120196671087754
100
AcDbArc
 50
290.4605942393521
 51
357.953021128537
  0
ARC
  5
341
330
1F
100
AcDbEntity
  8
0
  6
Continuous
 62
     7
370
    25
100
AcDbCircle
 10
7.874320559775025
 20
18.35236338955716
 30
0.0
 40
0.3120196671087708
100
AcDbArc
 50
182.0469788714643
 51
249.5394057606515
  0
ARC
  5
342
330
1F
100
AcDbEntity
  8
0
  6
Continuous
 62
     7
370
    25
100
AcDbCircle
 10
6.375679440224976
 20
16.86709455970874
 30
0.0
 40
0.3120196671087717
100
AcDbArc
 50
2.046978871464264
 51
69.53940576065008
  0
ARC
  5
343
330
1F
100
AcDbEntity
  8
0
  6
Continuous
 62
     7
370
    25
100
AcDbCircle
 10
7.874320559775031
 20
16.86709455970874
 30
0.0
 40
0.3120196671087754
100
AcDbArc
 50
110.4605942393509
 51
177.9530211285358
  0
SPLINE
  5
3D4
330
1F
100
AcDbEntity
  8
0
  6
Continuous
 62
     7
370
    25
100
AcDbSpline
210
0.0
220
0.0
230
1.0
 70
    24
 71
     3
 72
    11
 73
     7
 74
     0
 42
0.000000001
 43
0.00000001
 40
0.0
 40
0.0
 40
0.0
 40
0.0
 40
0.1253116928736575
 40
0.3426386129371551
 40
0.5600332439329524
 40
0.9999999999999999
 40
0.9999999999999999
 40
0.9999999999999999
 40
0.9999999999999999
 10
12.5
 20
34.02262317039131
 30
0.0
 10
12.5
 20
34.02179517063631
 30
0.0
 10
12.5
 20
34.01953117849751
 30
0.0
 10
12.5
 20
34.03652864819971
 30
0.0
 10
12.5
 20
34.07413689403745
 30
0.0
 10
12.5
 20
34.12029499991311
 30
0.0
 10
12.5
 20
34.15118825362102
 30
0.0
  0
SPLINE
  5
3D5
330
1F
100
AcDbEntity
  8
0
  6
Continuous
 62
     7
370
    25
100
AcDbSpline
210
0.0
220
0.0
230
1.0
 70
     8
 71
     3
 72
    24
 73
    20
 74
     0
 42
0.000000001
 43
0.00000001
 40
0.0
 40
0.0
 40
0.0
 40
0.0
 40
0.1249999999999997
 40
0.1249999999999997
 40
0.2499999999999995
 40
0.2499999999999995
 40
0.3749999999999993
 40
0.3749999999999993
 40
0.4999999999999991
 40
0.4999999999999991
 40
0.5624999999999991
 40
0.5624999999999991
 40
0.6249999999999989
 40
0.6249999999999989
 40
0.7499999999999992
 40
0.7499999999999992
 40
0.8749999999999997
 40
0.8749999999999997
 40
1.0
 40
1.0
 40
1.0
 40
1.0
 10
12.5
 20
34.15118825362102
 30
0.0
 10
12.57037640477637
 20
34.13307577244082
 30
0.0
 10
12.64100901227725
 20
34.11597377571346
 30
0.0
 10
12.78303141359663
 20
34.08475618688554
 30
0.0
 10
12.8544212503643
 20
34.07064076418003
 30
0.0
 10
12.99830076137639
 20
34.04674776752934
 30
0.0
 10
13.07079380535707
 20
34.03698348409904
 30
0.0
 10
13.21728118219394
 20
34.02337612307585
 30
0.0
 10
13.29128308536021
 20
34.01956290340377
 30
0.0
 10
13.4036316943294
 20
34.01915083835853
 30
0.0
 10
13.44130377440488
 20
34.01989121406365
 30
0.0
 10
13.51709962919831
 20
34.02315348600428
 30
0.0
 10
13.5548662068875
 20
34.02566111128873
 30
0.0
 10
13.66736257060296
 20
34.03553260177763
 30
0.0
 10
13.74149636053321
 20
34.04525172656167
 30
0.0
 10
13.88849813558512
 20
34.06928864063611
 30
0.0
 10
13.96137029689205
 20
34.08359125785986
 30
0.0
 10
14.10625735025108
 20
34.11531094855506
 30
0.0
 10
14.17827225300637
 20
34.13272798314189
 30
0.0
 10
14.25
 20
34.15118825362102
 30
0.0
  0
SPLINE
  5
3D6
330
1F
100
AcDbEntity
  8
0
  6
Continuous
 62
     7
370
    25
100
AcDbSpline
210
0.0
220
0.0
230
1.0
 70
    24
 71
     3
 72
    11
 73
     7
 74
     0
 42
0.000000001
 43
0.00000001
 40
0.0
 40
0.0
 40
0.0
 40
0.0
 40
0.2786715149070172
 40
0.5572388201020749
 40
0.8413357571247592
 40
1.0
 40
1.0
 40
1.0
 40
1.0
 10
14.25
 20
34.15118825362102
 30
0.0
 10
14.25
 20
34.13130873888031
 30
0.0
 10
14.25
 20
34.09155714337902
 30
0.0
 10
14.25
 20
34.04704640355861
 30
0.0
 10
14.25
 20
34.0211272860957
 30
0.0
 10
14.25
 20
34.02222853567816
 30
0.0
 10
14.25
 20
34.02262317039131
 30
0.0
  0
SPLINE
  5
3D7
330
1F
100
AcDbEntity
  8
0
  6
Continuous
 62
     7
370
    25
100
AcDbSpline
210
0.0
220
0.0
230
1.0
 70
     8
 71
     3
 72
    24
 73
    20
 74
     0
 42
0.000000001
 43
0.00000001
 40
0.0
 40
0.0
 40
0.0
 40
0.0
 40
0.125
 40
0.125
 40
0.25
 40
0.25
 40
0.375
 40
0.375
 40
0.5
 40
0.5
 40
0.5625
 40
0.5625
 40
0.625
 40
0.625
 40
0.75
 40
0.75
 40
0.875
 40
0.875
 40
1.0
 40
1.0
 40
1.0
 40
1.0
 10
14.25
 20
8.568269695644897
 30
0.0
 10
14.17962359522363
 20
8.586382176825097
 30
0.0
 10
14.10899098772275
 20
8.603484173552452
 30
0.0
 10
13.96696858640338
 20
8.63470176238039
 30
0.0
 10
13.8955787496357
 20
8.648817185085887
 30
0.0
 10
13.75169923862362
 20
8.672710181736576
 30
0.0
 10
13.67920619464293
 20
8.682474465166884
 30
0.0
 10
13.53271881780607
 20
8.696081826190067
 30
0.0
 10
13.4587169146398
 20
8.699895045862165
 30
0.0
 10
13.34636830567061
 20
8.7003071109074
 30
0.0
 10
13.30869622559513
 20
8.699566735202273
 30
0.0
 10
13.23290037080169
 20
8.69630446326164
 30
0.0
 10
13.1951337931125
 20
8.693796837977196
 30
0.0
 10
13.08263742939704
 20
8.683925347488284
 30
0.0
 10
13.00850363946679
 20
8.674206222704248
 30
0.0
 10
12.86150186441488
 20
8.650169308629804
 30
0.0
 10
12.78862970310796
 20
8.635866691406063
 30
0.0
 10
12.64374264974893
 20
8.604147000710856
 30
0.0
 10
12.57172774699363
 20
8.586729966124024
 30
0.0
 10
12.5
 20
8.568269695644897
 30
0.0
  0
SPLINE
  5
3D8
330
1F
100
AcDbEntity
  8
0
  6
Continuous
 62
     7
370
    25
100
AcDbSpline
210
0.0
220
0.0
230
1.0
 70
    24
 71
     3
 72
    11
 73
     7
 74
     0
 42
0.000000001
 43
0.00000001
 40
0.0
 40
0.0
 40
0.0
 40
0.0
 40
0.1253116928736593
 40
0.3426386129371564
 40
0.5600332439329536
 40
1.0
 40
1.0
 40
1.0
 40
1.0
 10
14.25
 20
8.696834778874615
 30
0.0
 10
14.25
 20
8.697662778629613
 30
0.0
 10
14.25
 20
8.699926770768403
 30
0.0
 10
14.25
 20
8.682929301066213
 30
0.0
 10
14.25
 20
8.645321055228466
 30
0.0
 10
14.25
 20
8.599162949352804
 30
0.0
 10
14.25
 20
8.568269695644897
 30
0.0
  0
SPLINE
  5
3D9
330
1F
100
AcDbEntity
  8
0
  6
Continuous
 62
     7
370
    25
100
AcDbSpline
210
0.0
220
0.0
230
1.0
 70
    24
 71
     3
 72
    11
 73
     7
 74
     0
 42
0.000000001
 43
0.00000001
 40
0.0
 40
0.0
 40
0.0
 40
0.0
 40
0.278671514907017
 40
0.5572388201020754
 40
0.8413357571247603
 40
1.0
 40
1.0
 40
1.0
 40
1.0
 10
12.5
 20
8.568269695644897
 30
0.0
 10
12.5
 20
8.588149210385609
 30
0.0
 10
12.5
 20
8.627900805886908
 30
0.0
 10
12.5
 20
8.672411545707304
 30
0.0
 10
12.5
 20
8.698330663170221
 30
0.0
 10
12.5
 20
8.697229413587754
 30
0.0
 10
12.5
 20
8.696834778874615
 30
0.0
  0
LINE
  5
3DA
330
1F
100
AcDbEntity
  8
0
  6
Continuous
 62
     7
370
    25
100
AcDbLine
 10
12.5
 20
34.0192720222045
 30
0.0
 11
12.71928736315349
 21
33.93945794926591
 31
0.0
  0
LINE
  5
3DB
330
1F
100
AcDbEntity
  8
0
  6
Continuous
 62
     7
370
    25
100
AcDbLine
 10
14.03071263684651
 20
33.93945794926591
 30
0.0
 11
14.25
 21
34.0192720222045
 31
0.0
  0
LINE
  5
3DC
330
1F
100
AcDbEntity
  8
0
  6
Continuous
 62
     7
370
    25
100
AcDbLine
 10
14.25
 20
8.700185927061419
 30
0.0
 11
14.03071263684654
 21
8.780000000000001
 31
0.0
  0
LINE
  5
3DD
330
1F
100
AcDbEntity
  8
0
  6
Continuous
 62
     7
370
    25
100
AcDbLine
 10
12.71928736315347
 20
8.780000000000001
 30
0.0
 11
12.5
 21
8.700185927061419
 31
0.0
  0
LINE
  5
3DE
330
1F
100
AcDbEntity
  8
0
  6
Continuous
 62
     7
370
    25
100
AcDbLine
 10
14.21999999996233
 20
22.71571452162615
 30
0.0
 11
14.20320157470483
 21
23.15271452163147
 31
0.0
  0
LINE
  5
3DF
330
1F
100
AcDbEntity
  8
0
  6
Continuous
 62
     7
370
    25
100
AcDbLine
 10
12.54679842529517
 20
23.15271452163147
 30
0.0
 11
12.53000000003767
 21
22.71571452162615
 31
0.0
  0
LINE
  5
3E0
330
1F
100
AcDbEntity
  8
0
  6
Continuous
 62
     7
370
    25
100
AcDbLine
 10
12.53000000003767
 20
20.00374342763975
 30
0.0
 11
12.54679842529517
 21
19.56674342763443
 31
0.0
  0
LINE
  5
3E1
330
1F
100
AcDbEntity
  8
0
  6
Continuous
 62
     7
370
    25
100
AcDbLine
 10
14.20320157470483
 20
19.56674342763443
 30
0.0
 11
14.21999999996233
 21
20.00374342763975
 31
0.0
  0
LINE
  5
3E2
330
1F
100
AcDbEntity
  8
0
  6
Continuous
 62
     7
370
    25
100
AcDbLine
 10
12.55160266651293
 20
19.44176424774043
 30
0.0
 11
12.56121351699556
 21
19.19174428476225
 31
0.0
  0
LINE
  5
3E3
330
1F
100
AcDbEntity
  8
0
  6
Continuous
 62
     7
370
    25
100
AcDbLine
 10
14.18878648300444
 20
19.19174428476225
 30
0.0
 11
14.19839733348707
 21
19.44176424774043
 31
0.0
  0
LINE
  5
3E4
330
1F
100
AcDbEntity
  8
0
  6
Continuous
 62
     7
370
    25
100
AcDbLine
 10
14.19839733348707
 20
23.27769370152547
 30
0.0
 11
14.18878648300444
 21
23.52771366450365
 31
0.0
  0
LINE
  5
3E5
330
1F
100
AcDbEntity
  8
0
  6
Continuous
 62
     7
370
    25
100
AcDbLine
 10
12.56121351699556
 20
23.52771366450365
 30
0.0
 11
12.55160266651293
 21
23.27769370152547
 31
0.0
  0
LINE
  5
3E6
330
1F
100
AcDbEntity
  8
0
  6
Continuous
 62
     7
370
    25
100
AcDbLine
 10
12.56601775821339
 20
19.06676510486825
 30
0.0
 11
12.92178736315352
 21
9.811652498917002
 31
0.0
  0
LINE
  5
3E7
330
1F
100
AcDbEntity
  8
0
  6
Continuous
 62
     7
370
    25
100
AcDbLine
 10
13.82821263684649
 20
9.811652498917002
 30
0.0
 11
14.18398224178661
 21
19.06676510486825
 31
0.0
  0
LINE
  5
3E8
330
1F
100
AcDbEntity
  8
0
  6
Continuous
 62
     7
370
    25
100
AcDbLine
 10
14.18398224178661
 20
23.65269284439765
 30
0.0
 11
13.82821263684634
 21
32.9078054503489
 31
0.0
  0
LINE
  5
3E9
330
1F
100
AcDbEntity
  8
0
  6
Continuous
 62
     7
370
    25
100
AcDbLine
 10
12.92178736315366
 20
32.9078054503489
 30
0.0
 11
12.56601775821339
 21
23.65269284439765
 31
0.0
  0
LINE
  5
3EA
330
1F
100
AcDbEntity
  8
0
  6
Continuous
 62
     7
370
    25
100
AcDbLine
 10
14.03071263684659
 20
33.37652178553111
 30
0.0
 11
14.03071263684659
 21
33.50158562178747
 31
0.0
  0
LINE
  5
3EB
330
1F
100
AcDbEntity
  8
0
  6
Continuous
 62
     7
370
    25
100
AcDbLine
 10
12.71928736315341
 20
33.50158562178747
 30
0.0
 11
12.71928736315341
 21
33.37652178553111
 31
0.0
  0
LINE
  5
3EC
330
1F
100
AcDbEntity
  8
0
  6
Continuous
 62
     7
370
    25
100
AcDbLine
 10
14.03071263684659
 20
9.217872327478434
 30
0.0
 11
14.03071263684659
 21
9.342936163734787
 31
0.0
  0
LINE
  5
3ED
330
1F
100
AcDbEntity
  8
0
  6
Continuous
 62
     7
370
    25
100
AcDbLine
 10
12.71928736315342
 20
9.342936163734787
 30
0.0
 11
12.71928736315342
 21
9.217872327478434
 31
0.0
  0
LINE
  5
3EE
330
1F
100
AcDbEntity
  8
0
  6
Continuous
 62
     7
370
    25
100
AcDbLine
 10
12.73475000000162
 20
21.03442978791898
 30
0.0
 11
12.73475000000162
 21
20.90942978791889
 31
0.0
  0
LINE
  5
3EF
330
1F
100
AcDbEntity
  8
0
  6
Continuous
 62
     7
370
    25
100
AcDbLine
 10
14.01524999999838
 20
20.90942978791889
 30
0.0
 11
14.01524999999838
 21
21.03442978791898
 31
0.0
  0
LINE
  5
3F0
330
1F
100
AcDbEntity
  8
0
  6
Continuous
 62
     7
370
    25
100
AcDbLine
 10
12.73475000000162
 20
21.81002816134702
 30
0.0
 11
12.73475000000162
 21
21.68502816134693
 31
0.0
  0
LINE
  5
3F1
330
1F
100
AcDbEntity
  8
0
  6
Continuous
 62
     7
370
    25
100
AcDbLine
 10
14.01524999999838
 20
21.68502816134693
 30
0.0
 11
14.01524999999838
 21
21.81002816134702
 31
0.0
  0
LINE
  5
3F2
330
1F
100
AcDbEntity
  8
0
  6
Continuous
 62
     7
370
    25
100
AcDbLine
 10
12.92178736315329
 20
33.09602178553126
 30
0.0
 11
12.98428736315327
 21
33.07691361794009
 31
0.0
  0
LINE
  5
3F3
330
1F
100
AcDbEntity
  8
0
  6
Continuous
 62
     7
370
    25
100
AcDbLine
 10
13.76571263684674
 20
33.07691361794009
 30
0.0
 11
13.82821263684671
 21
33.09602178553126
 31
0.0
  0
LINE
  5
3F4
330
1F
100
AcDbEntity
  8
0
  6
Continuous
 62
     7
370
    25
100
AcDbLine
 10
13.82821263684671
 20
9.623436163734638
 30
0.0
 11
13.76571263684673
 21
9.642544331325821
 31
0.0
  0
LINE
  5
3F5
330
1F
100
AcDbEntity
  8
0
  6
Continuous
 62
     7
370
    25
100
AcDbLine
 10
12.98428736315327
 20
9.642544331325821
 30
0.0
 11
12.92178736315329
 21
9.623436163734638
 31
0.0
  0
LINE
  5
3F6
330
1F
100
AcDbEntity
  8
0
  6
Continuous
 62
     7
370
    25
100
AcDbLine
 10
12.92178736315336
 20
9.811652498917004
 30
0.0
 11
12.98428736315327
 21
9.792544331325821
 31
0.0
  0
LINE
  5
3F7
330
1F
100
AcDbEntity
  8
0
  6
Continuous
 62
     7
370
    25
100
AcDbLine
 10
13.76571263684673
 20
9.792544331325821
 30
0.0
 11
13.82821263684664
 21
9.811652498917004
 31
0.0
  0
LINE
  5
3F8
330
1F
100
AcDbEntity
  8
0
  6
Continuous
 62
     7
370
    25
100
AcDbLine
 10
13.82821263684635
 20
32.90780545034899
 30
0.0
 11
13.76571263684673
 21
32.92691361794009
 31
0.0
  0
LINE
  5
3F9
330
1F
100
AcDbEntity
  8
0
  6
Continuous
 62
     7
370
    25
100
AcDbLine
 10
12.98428736315327
 20
32.92691361794009
 30
0.0
 11
12.92178736315366
 21
32.90780545034899
 31
0.0
  0
LINE
  5
3FA
330
1F
100
AcDbEntity
  8
0
  6
Continuous
 62
     7
370
    25
100
AcDbLine
 10
12.93750000000912
 20
22.25732010515157
 30
0.0
 11
12.99000000001154
 21
22.24126924437488
 31
0.0
  0
LINE
  5
3FB
330
1F
100
AcDbEntity
  8
0
  6
Continuous
 62
     7
370
    25
100
AcDbLine
 10
13.75999999998846
 20
22.24126924437488
 30
0.0
 11
13.81249999999088
 21
22.25732010515157
 31
0.0
  0
LINE
  5
3FC
330
1F
100
AcDbEntity
  8
0
  6
Continuous
 62
     7
370
    25
100
AcDbLine
 10
13.81249999999088
 20
20.46213784411433
 30
0.0
 11
13.75999999998846
 21
20.47818870489103
 31
0.0
  0
LINE
  5
3FD
330
1F
100
AcDbEntity
  8
0
  6
Continuous
 62
     7
370
    25
100
AcDbLine
 10
12.99000000001154
 20
20.47818870489103
 30
0.0
 11
12.93750000000912
 21
20.46213784411433
 31
0.0
  0
LINE
  5
3FE
330
1F
100
AcDbEntity
  8
0
  6
Continuous
 62
     7
370
    25
100
AcDbLine
 10
13.8124999999897
 20
22.09121838359795
 30
0.0
 11
13.75999999998846
 21
22.10726924437486
 31
0.0
  0
LINE
  5
3FF
330
1F
100
AcDbEntity
  8
0
  6
Continuous
 62
     7
370
    25
100
AcDbLine
 10
12.99000000001154
 20
22.10726924437486
 30
0.0
 11
12.93750000001031
 21
22.09121838359795
 31
0.0
  0
LINE
  5
400
330
1F
100
AcDbEntity
  8
0
  6
Continuous
 62
     7
370
    25
100
AcDbLine
 10
12.93750000001031
 20
20.62823956566795
 30
0.0
 11
12.99000000001154
 21
20.61218870489105
 31
0.0
  0
LINE
  5
401
330
1F
100
AcDbEntity
  8
0
  6
Continuous
 62
     7
370
    25
100
AcDbLine
 10
13.75999999998846
 20
20.61218870489105
 30
0.0
 11
13.81249999998969
 21
20.62823956566795
 31
0.0
  0
LINE
  5
402
330
1F
100
AcDbEntity
  8
0
  6
Continuous
 62
     7
370
    25
100
AcDbLine
 10
13.76571263684673
 20
32.92691361794009
 30
0.0
 11
13.76571263684673
 21
33.07691361794009
 31
0.0
  0
LINE
  5
403
330
1F
100
AcDbEntity
  8
0
  6
Continuous
 62
     7
370
    25
100
AcDbLine
 10
12.98428736315327
 20
33.07691361794009
 30
0.0
 11
12.98428736315327
 21
32.92691361794009
 31
0.0
  0
LINE
  5
404
330
1F
100
AcDbEntity
  8
0
  6
Continuous
 62
     7
370
    25
100
AcDbLine
 10
13.76571263684673
 20
9.642544331325821
 30
0.0
 11
13.76571263684673
 21
9.792544331325821
 31
0.0
  0
LINE
  5
405
330
1F
100
AcDbEntity
  8
0
  6
Continuous
 62
     7
370
    25
100
AcDbLine
 10
12.98428736315327
 20
9.792544331325821
 30
0.0
 11
12.98428736315327
 21
9.642544331325821
 31
0.0
  0
LINE
  5
406
330
1F
100
AcDbEntity
  8
0
  6
Continuous
 62
     7
370
    25
100
AcDbLine
 10
12.99000000001154
 20
20.61218870489105
 30
0.0
 11
12.99000000001154
 21
20.47818870489103
 31
0.0
  0
LINE
  5
407
330
1F
100
AcDbEntity
  8
0
  6
Continuous
 62
     7
370
    25
100
AcDbLine
 10
13.75999999998846
 20
20.47818870489103
 30
0.0
 11
13.75999999998846
 21
20.61218870489105
 31
0.0
  0
LINE
  5
408
330
1F
100
AcDbEntity
  8
0
  6
Continuous
 62
     7
370
    25
100
AcDbLine
 10
12.99000000001154
 20
22.24126924437488
 30
0.0
 11
12.99000000001154
 21
22.10726924437486
 31
0.0
  0
LINE
  5
409
330
1F
100
AcDbEntity
  8
0
  6
Continuous
 62
     7
370
    25
100
AcDbLine
 10
13.75999999998846
 20
22.10726924437486
 30
0.0
 11
13.75999999998846
 21
22.24126924437488
 31
0.0
  0
LINE
  5
40A
330
1F
100
AcDbEntity
  8
0
  6
Continuous
 62
     7
370
    25
100
AcDbLine
 10
13.0
 20
0.4999999999999982
 30
0.0
 11
13.0
 21
0.0
 31
0.0
  0
LINE
  5
40B
330
1F
100
AcDbEntity
  8
0
  6
Continuous
 62
     7
370
    25
100
AcDbLine
 10
13.75
 20
0.0
 30
0.0
 11
13.75
 21
0.4999999999999982
 31
0.0
  0
LINE
  5
40C
330
1F
100
AcDbEntity
  8
0
  6
Continuous
 62
     7
370
    25
100
AcDbLine
 10
12.71928736315349
 20
33.93945794926591
 30
0.0
 11
14.03071263684651
 21
33.93945794926591
 31
0.0
  0
LINE
  5
40D
330
1F
100
AcDbEntity
  8
0
  6
Continuous
 62
     7
370
    25
100
AcDbLine
 10
12.5
 20
39.00045794926591
 30
0.0
 11
14.25
 21
39.00045794926591
 31
0.0
  0
LINE
  5
40E
330
1F
100
AcDbEntity
  8
0
  6
Continuous
 62
     7
370
    25
100
AcDbLine
 10
12.5
 20
39.00045794926591
 30
0.0
 11
12.5
 21
34.15118825362102
 31
0.0
  0
LINE
  5
40F
330
1F
100
AcDbEntity
  8
0
  6
Continuous
 62
     7
370
    25
100
AcDbLine
 10
14.25
 20
39.00045794926591
 30
0.0
 11
14.25
 21
34.15118825362102
 31
0.0
  0
LINE
  5
410
330
1F
100
AcDbEntity
  8
0
  6
Continuous
 62
     7
370
    25
100
AcDbLine
 10
14.25
 20
0.4999999999999982
 30
0.0
 11
14.25
 21
8.568269695644897
 31
0.0
  0
LINE
  5
411
330
1F
100
AcDbEntity
  8
0
  6
Continuous
 62
     7
370
    25
100
AcDbLine
 10
12.5
 20
0.4999999999999982
 30
0.0
 11
12.5
 21
8.568269695644897
 31
0.0
  0
LINE
  5
412
330
1F
100
AcDbEntity
  8
0
  6
Continuous
 62
     7
370
    25
100
AcDbLine
 10
14.25
 20
0.4999999999999982
 30
0.0
 11
12.5
 21
0.4999999999999982
 31
0.0
  0
LINE
  5
413
330
1F
100
AcDbEntity
  8
0
  6
Continuous
 62
     7
370
    25
100
AcDbLine
 10
12.71928736315347
 20
8.780000000000001
 30
0.0
 11
14.03071263684654
 21
8.780000000000001
 31
0.0
  0
LINE
  5
414
330
1F
100
AcDbEntity
  8
0
  6
Continuous
 62
     7
370
    25
100
AcDbLine
 10
14.03071263684659
 20
33.50158562178747
 30
0.0
 11
12.71928736315341
 21
33.50158562178747
 31
0.0
  0
LINE
  5
415
330
1F
100
AcDbEntity
  8
0
  6
Continuous
 62
     7
370
    25
100
AcDbLine
 10
14.03071263684659
 20
9.217872327478434
 30
0.0
 11
12.71928736315342
 21
9.217872327478434
 31
0.0
  0
LINE
  5
416
330
1F
100
AcDbEntity
  8
0
  6
Continuous
 62
     7
370
    25
100
AcDbLine
 10
12.73475000000162
 20
21.68502816134693
 30
0.0
 11
14.01524999999839
 21
21.68502816134693
 31
0.0
  0
LINE
  5
417
330
1F
100
AcDbEntity
  8
0
  6
Continuous
 62
     7
370
    25
100
AcDbLine
 10
12.73475000000162
 20
21.03442978791898
 30
0.0
 11
14.01524999999839
 21
21.03442978791898
 31
0.0
  0
LINE
  5
418
330
1F
100
AcDbEntity
  8
0
  6
Continuous
 62
     7
370
    25
100
AcDbLine
 10
12.54679842529517
 20
23.15271452163147
 30
0.0
 11
14.20320157470483
 21
23.15271452163147
 31
0.0
  0
LINE
  5
419
330
1F
100
AcDbEntity
  8
0
  6
Continuous
 62
     7
370
    25
100
AcDbLine
 10
12.53000000003767
 20
22.71571452162615
 30
0.0
 11
14.21999999996233
 21
22.71571452162615
 31
0.0
  0
LINE
  5
41A
330
1F
100
AcDbEntity
  8
0
  6
Continuous
 62
     7
370
    25
100
AcDbLine
 10
12.93750000000912
 20
22.25732010515157
 30
0.0
 11
13.81249999999088
 21
22.25732010515157
 31
0.0
  0
LINE
  5
41B
330
1F
100
AcDbEntity
  8
0
  6
Continuous
 62
     7
370
    25
100
AcDbLine
 10
12.53000000003767
 20
20.00374342763975
 30
0.0
 11
14.21999999996233
 21
20.00374342763975
 31
0.0
  0
LINE
  5
41C
330
1F
100
AcDbEntity
  8
0
  6
Continuous
 62
     7
370
    25
100
AcDbLine
 10
12.54679842529517
 20
19.56674342763443
 30
0.0
 11
14.20320157470483
 21
19.56674342763443
 31
0.0
  0
LINE
  5
41D
330
1F
100
AcDbEntity
  8
0
  6
Continuous
 62
     7
370
    25
100
AcDbLine
 10
12.93750000000912
 20
20.46213784411433
 30
0.0
 11
13.81249999999088
 21
20.46213784411433
 31
0.0
  0
LINE
  5
41E
330
1F
100
AcDbEntity
  8
0
  6
Continuous
 62
     7
370
    25
100
AcDbLine
 10
12.55160266651293
 20
23.27769370152547
 30
0.0
 11
14.19839733348707
 21
23.27769370152547
 31
0.0
  0
LINE
  5
41F
330
1F
100
AcDbEntity
  8
0
  6
Continuous
 62
     7
370
    25
100
AcDbLine
 10
12.55160266651293
 20
19.44176424774043
 30
0.0
 11
14.19839733348707
 21
19.44176424774043
 31
0.0
  0
LINE
  5
420
330
1F
100
AcDbEntity
  8
0
  6
Continuous
 62
     7
370
    25
100
AcDbLine
 10
12.56121351699556
 20
19.19174428476225
 30
0.0
 11
14.18878648300444
 21
19.19174428476225
 31
0.0
  0
LINE
  5
421
330
1F
100
AcDbEntity
  8
0
  6
Continuous
 62
     7
370
    25
100
AcDbLine
 10
12.56121351699556
 20
23.52771366450365
 30
0.0
 11
14.18878648300444
 21
23.52771366450365
 31
0.0
  0
LINE
  5
422
330
1F
100
AcDbEntity
  8
0
  6
Continuous
 62
     7
370
    25
100
AcDbLine
 10
12.56601775821339
 20
19.06676510486825
 30
0.0
 11
14.18398224178661
 21
19.06676510486825
 31
0.0
  0
LINE
  5
423
330
1F
100
AcDbEntity
  8
0
  6
Continuous
 62
     7
370
    25
100
AcDbLine
 10
12.56601775821339
 20
23.65269284439766
 30
0.0
 11
14.18398224178661
 21
23.65269284439766
 31
0.0
  0
LINE
  5
424
330
1F
100
AcDbEntity
  8
0
  6
Continuous
 62
     7
370
    25
100
AcDbLine
 10
13.82821263684664
 20
9.811652498917004
 30
0.0
 11
12.92178736315336
 21
9.811652498917004
 31
0.0
  0
LINE
  5
425
330
1F
100
AcDbEntity
  8
0
  6
Continuous
 62
     7
370
    25
100
AcDbLine
 10
12.92178736315366
 20
32.9078054503489
 30
0.0
 11
13.82821263684634
 21
32.9078054503489
 31
0.0
  0
LINE
  5
426
330
1F
100
AcDbEntity
  8
0
  6
Continuous
 62
     7
370
    25
100
AcDbLine
 10
14.03071263684659
 20
33.37652178553111
 30
0.0
 11
12.71928736315341
 21
33.37652178553111
 31
0.0
  0
LINE
  5
427
330
1F
100
AcDbEntity
  8
0
  6
Continuous
 62
     7
370
    25
100
AcDbLine
 10
13.82821263684671
 20
33.09602178553126
 30
0.0
 11
12.92178736315329
 21
33.09602178553126
 31
0.0
  0
LINE
  5
428
330
1F
100
AcDbEntity
  8
0
  6
Continuous
 62
     7
370
    25
100
AcDbLine
 10
14.03071263684659
 20
9.342936163734787
 30
0.0
 11
12.71928736315342
 21
9.342936163734787
 31
0.0
  0
LINE
  5
429
330
1F
100
AcDbEntity
  8
0
  6
Continuous
 62
     7
370
    25
100
AcDbLine
 10
13.82821263684671
 20
9.623436163734638
 30
0.0
 11
12.92178736315329
 21
9.623436163734638
 31
0.0
  0
LINE
  5
42A
330
1F
100
AcDbEntity
  8
0
  6
Continuous
 62
     7
370
    25
100
AcDbLine
 10
12.73475000000162
 20
20.90942978791889
 30
0.0
 11
14.01524999999838
 21
20.90942978791889
 31
0.0
  0
LINE
  5
42B
330
1F
100
AcDbEntity
  8
0
  6
Continuous
 62
     7
370
    25
100
AcDbLine
 10
12.73475000000162
 20
21.81002816134702
 30
0.0
 11
14.01524999999838
 21
21.81002816134702
 31
0.0
  0
LINE
  5
42C
330
1F
100
AcDbEntity
  8
0
  6
Continuous
 62
     7
370
    25
100
AcDbLine
 10
12.93750000001031
 20
22.09121838359795
 30
0.0
 11
13.8124999999897
 21
22.09121838359795
 31
0.0
  0
LINE
  5
42D
330
1F
100
AcDbEntity
  8
0
  6
Continuous
 62
     7
370
    25
100
AcDbLine
 10
12.93750000001031
 20
20.62823956566795
 30
0.0
 11
13.81249999998969
 21
20.62823956566795
 31
0.0
  0
LINE
  5
42E
330
1F
100
AcDbEntity
  8
0
  6
Continuous
 62
     7
370
    25
100
AcDbLine
 10
13.76571263684674
 20
33.07691361794009
 30
0.0
 11
12.98428736315327
 21
33.07691361794009
 31
0.0
  0
LINE
  5
42F
330
1F
100
AcDbEntity
  8
0
  6
Continuous
 62
     7
370
    25
100
AcDbLine
 10
13.76571263684673
 20
9.642544331325821
 30
0.0
 11
12.98428736315327
 21
9.642544331325821
 31
0.0
  0
LINE
  5
430
330
1F
100
AcDbEntity
  8
0
  6
Continuous
 62
     7
370
    25
100
AcDbLine
 10
13.76571263684673
 20
9.792544331325821
 30
0.0
 11
12.98428736315327
 21
9.792544331325821
 31
0.0
  0
LINE
  5
431
330
1F
100
AcDbEntity
  8
0
  6
Continuous
 62
     7
370
    25
100
AcDbLine
 10
13.76571263684673
 20
32.92691361794009
 30
0.0
 11
12.98428736315327
 21
32.92691361794009
 31
0.0
  0
LINE
  5
432
330
1F
100
AcDbEntity
  8
0
  6
Continuous
 62
     7
370
    25
100
AcDbLine
 10
12.99000000001154
 20
22.24126924437488
 30
0.0
 11
13.75999999998846
 21
22.24126924437488
 31
0.0
  0
LINE
  5
433
330
1F
100
AcDbEntity
  8
0
  6
Continuous
 62
     7
370
    25
100
AcDbLine
 10
12.99000000001154
 20
20.47818870489103
 30
0.0
 11
13.75999999998846
 21
20.47818870489103
 31
0.0
  0
LINE
  5
434
330
1F
100
AcDbEntity
  8
0
  6
Continuous
 62
     7
370
    25
100
AcDbLine
 10
12.99000000001154
 20
22.10726924437486
 30
0.0
 11
13.75999999998846
 21
22.10726924437486
 31
0.0
  0
LINE
  5
435
330
1F
100
AcDbEntity
  8
0
  6
Continuous
 62
     7
370
    25
100
AcDbLine
 10
12.99000000001154
 20
20.61218870489105
 30
0.0
 11
13.75999999998846
 21
20.61218870489105
 31
0.0
  0
LINE
  5
436
330
1F
100
AcDbEntity
  8
0
  6
Continuous
 62
     7
370
    25
100
AcDbLine
 10
13.75
 20
0.0
 30
0.0
 11
13.0
 21
0.0
 31
0.0
  0
ARC
  5
437
330
1F
100
AcDbEntity
  8
0
  6
Continuous
 62
     7
370
    25
100
AcDbCircle
 10
13.99874183401959
 20
33.72052178552669
 30
0.0
 40
0.2212581660103162
100
AcDbArc
 50
278.308064108723
 51
81.6919358913003
  0
ARC
  5
438
330
1F
100
AcDbEntity
  8
0
  6
Continuous
 62
     7
370
    25
100
AcDbCircle
 10
12.75125816598042
 20
33.72052178552669
 30
0.0
 40
0.221258166010316
100
AcDbArc
 50
98.30806410869968
 51
261.6919358912801
  0
ARC
  5
439
330
1F
100
AcDbEntity
  8
0
  6
Continuous
 62
     7
370
    25
100
AcDbCircle
 10
13.99874183401958
 20
8.99893616373922
 30
0.0
 40
0.2212581660103113
100
AcDbArc
 50
278.308064108711
 51
81.69193589127781
  0
ARC
  5
43A
330
1F
100
AcDbEntity
  8
0
  6
Continuous
 62
     7
370
    25
100
AcDbCircle
 10
12.75125816598042
 20
8.99893616373922
 30
0.0
 40
0.2212581660103117
100
AcDbArc
 50
98.3080641087222
 51
261.6919358912922
  0
ARC
  5
43B
330
1F
100
AcDbEntity
  8
0
  6
Continuous
 62
     7
370
    25
100
AcDbCircle
 10
12.89078662607417
 20
21.35972897463295
 30
0.0
 40
0.3607866260726432
100
AcDbArc
 50
115.6256890944938
 51
244.374310905508
  0
ARC
  5
43C
330
1F
100
AcDbEntity
  8
0
  6
Continuous
 62
     7
370
    25
100
AcDbCircle
 10
13.85921337392583
 20
21.35972897463295
 30
0.0
 40
0.3607866260726432
100
AcDbArc
 50
295.625689094495
 51
64.37431090550622
  0
ARC
  5
43D
330
1F
100
AcDbEntity
  8
0
  6
Continuous
 62
     7
370
    25
100
AcDbCircle
 10
12.39733372252564
 20
22.18745251647213
 30
0.0
 40
0.5446660327927961
100
AcDbArc
 50
7.36998120954692
 51
75.90244520866929
  0
ARC
  5
43E
330
1F
100
AcDbEntity
  8
0
  6
Continuous
 62
     7
370
    25
100
AcDbCircle
 10
14.35266627747437
 20
22.18745251647213
 30
0.0
 40
0.5446660327928025
100
AcDbArc
 50
104.0975547913311
 51
172.6300187904524
  0
ARC
  5
43F
330
1F
100
AcDbEntity
  8
0
  6
Continuous
 62
     7
370
    25
100
AcDbCircle
 10
12.39733372252563
 20
20.53200543279378
 30
0.0
 40
0.5446660327928026
100
AcDbArc
 50
284.0975547913326
 51
352.6300187904539
  0
ARC
  5
440
330
1F
100
AcDbEntity
  8
0
  6
Continuous
 62
     7
370
    25
100
AcDbCircle
 10
14.35266627747436
 20
20.53200543279377
 30
0.0
 40
0.5446660327927978
100
AcDbArc
 50
187.3699812095488
 51
255.9024452086711
  0
ARC
  5
441
330
1F
100
AcDbEntity
  8
0
  6
Continuous
 62
     7
370
    25
100
AcDbCircle
 10
12.54350528147564
 20
23.21542303943619
 30
0.0
 40
0.0627949281509299
100
AcDbArc
 50
273.0061319068245
 51
82.5910982182597
  0
ARC
  5
442
330
1F
100
AcDbEntity
  8
0
  6
Continuous
 62
     7
370
    25
100
AcDbCircle
 10
14.20649471852436
 20
23.21542303943619
 30
0.0
 40
0.0627949281509287
100
AcDbArc
 50
97.4089017817371
 51
266.9938680931803
  0
ARC
  5
443
330
1F
100
AcDbEntity
  8
0
  6
Continuous
 62
     7
370
    25
100
AcDbCircle
 10
12.54350528147564
 20
19.50403490982972
 30
0.0
 40
0.062794928150929
100
AcDbArc
 50
277.4089017817387
 51
86.99386809317704
  0
ARC
  5
444
330
1F
100
AcDbEntity
  8
0
  6
Continuous
 62
     7
370
    25
100
AcDbCircle
 10
14.20649471852437
 20
19.50403490982972
 30
0.0
 40
0.0627949281509288
100
AcDbArc
 50
93.00613190682296
 51
262.5910982182629
  0
ARC
  5
445
330
1F
100
AcDbEntity
  8
0
  6
Continuous
 62
     7
370
    25
100
AcDbCircle
 10
12.55792037317617
 20
19.12903576695754
 30
0.0
 40
0.0627949281509208
100
AcDbArc
 50
277.4089017816776
 51
86.99386809330312
  0
ARC
  5
446
330
1F
100
AcDbEntity
  8
0
  6
Continuous
 62
     7
370
    25
100
AcDbCircle
 10
14.19207962682384
 20
19.12903576695754
 30
0.0
 40
0.0627949281509209
100
AcDbArc
 50
93.00613190669688
 51
262.5910982183256
  0
ARC
  5
447
330
1F
100
AcDbEntity
  8
0
  6
Continuous
 62
     7
370
    25
100
AcDbCircle
 10
12.55792037317616
 20
23.59042218230837
 30
0.0
 40
0.0627949281509244
100
AcDbArc
 50
273.0061319066983
 51
82.59109821832281
  0
ARC
  5
448
330
1F
100
AcDbEntity
  8
0
  6
Continuous
 62
     7
370
    25
100
AcDbCircle
 10
14.19207962682384
 20
23.59042218230837
 30
0.0
 40
0.0627949281509226
100
AcDbArc
 50
97.40890178167881
 51
266.9938680933033
  0
ARC
  5
449
330
1F
100
AcDbEntity
  8
0
  6
Continuous
 62
     7
370
    25
100
AcDbCircle
 10
14.13581685564804
 20
33.08729948853554
 30
0.0
 40
0.3077278568626137
100
AcDbArc
 50
109.9712909044083
 51
178.375779980159
  0
ARC
  5
44A
330
1F
100
AcDbEntity
  8
0
  6
Continuous
 62
     7
370
    25
100
AcDbCircle
 10
12.61418314435196
 20
33.08729948853554
 30
0.0
 40
0.3077278568626142
100
AcDbArc
 50
1.624220019841021
 51
70.02870909559141
  0
ARC
  5
44B
330
1F
100
AcDbEntity
  8
0
  6
Continuous
 62
     7
370
    25
100
AcDbCircle
 10
14.13581685564805
 20
9.632158460730363
 30
0.0
 40
0.3077278568626206
100
AcDbArc
 50
181.6242200198433
 51
250.0287090955921
  0
ARC
  5
44C
330
1F
100
AcDbEntity
  8
0
  6
Continuous
 62
     7
370
    25
100
AcDbCircle
 10
12.61418314435196
 20
9.632158460730363
 30
0.0
 40
0.3077278568626207
100
AcDbArc
 50
289.9712909044112
 51
358.37577998016
  0
ARC
  5
44D
330
1F
100
AcDbEntity
  8
0
  6
Continuous
 62
     7
370
    25
100
AcDbCircle
 10
12.62567944022497
 20
22.10236338955717
 30
0.0
 40
0.3120196671087754
100
AcDbArc
 50
290.4605942393524
 51
357.9530211285371
  0
ARC
  5
44E
330
1F
100
AcDbEntity
  8
0
  6
Continuous
 62
     7
370
    25
100
AcDbCircle
 10
14.12432055977503
 20
22.10236338955716
 30
0.0
 40
0.3120196671087708
100
AcDbArc
 50
182.0469788714643
 51
249.5394057606518
  0
ARC
  5
44F
330
1F
100
AcDbEntity
  8
0
  6
Continuous
 62
     7
370
    25
100
AcDbCircle
 10
12.62567944022498
 20
20.61709455970874
 30
0.0
 40
0.3120196671087717
100
AcDbArc
 50
2.046978871464264
 51
69.53940576065008
  0
ARC
  5
450
330
1F
100
AcDbEntity
  8
0
  6
Continuous
 62
     7
370
    25
100
AcDbCircle
 10
14.12432055977503
 20
20.61709455970874
 30
0.0
 40
0.3120196671087754
100
AcDbArc
 50
110.4605942393506
 51
177.9530211285358
  0
SPLINE
  5
4E0
330
1F
100
AcDbEntity
  8
0
  6
Continuous
 62
     7
370
    25
100
AcDbSpline
210
0.0
220
0.0
230
1.0
 70
    24
 71
     3
 72
    11
 73
     7
 74
     0
 42
0.000000001
 43
0.00000001
 40
0.0
 40
0.0
 40
0.0
 40
0.0
 40
0.1253116928736575
 40
0.3426386129371551
 40
0.5600332439329524
 40
0.9999999999999999
 40
0.9999999999999999
 40
0.9999999999999999
 40
0.9999999999999999
 10
18.75
 20
34.02262317039131
 30
0.0
 10
18.75
 20
34.02179517063631
 30
0.0
 10
18.75
 20
34.01953117849751
 30
0.0
 10
18.75
 20
34.03652864819971
 30
0.0
 10
18.75
 20
34.07413689403745
 30
0.0
 10
18.75
 20
34.12029499991311
 30
0.0
 10
18.75
 20
34.15118825362102
 30
0.0
  0
SPLINE
  5
4E1
330
1F
100
AcDbEntity
  8
0
  6
Continuous
 62
     7
370
    25
100
AcDbSpline
210
0.0
220
0.0
230
1.0
 70
     8
 71
     3
 72
    24
 73
    20
 74
     0
 42
0.000000001
 43
0.00000001
 40
0.0
 40
0.0
 40
0.0
 40
0.0
 40
0.1249999999999997
 40
0.1249999999999997
 40
0.2499999999999995
 40
0.2499999999999995
 40
0.3749999999999993
 40
0.3749999999999993
 40
0.4999999999999991
 40
0.4999999999999991
 40
0.5624999999999991
 40
0.5624999999999991
 40
0.6249999999999989
 40
0.6249999999999989
 40
0.7499999999999992
 40
0.7499999999999992
 40
0.8749999999999997
 40
0.8749999999999997
 40
1.0
 40
1.0
 40
1.0
 40
1.0
 10
18.75
 20
34.15118825362102
 30
0.0
 10
18.82037640477638
 20
34.13307577244082
 30
0.0
 10
18.89100901227726
 20
34.11597377571346
 30
0.0
 10
19.03303141359663
 20
34.08475618688554
 30
0.0
 10
19.1044212503643
 20
34.07064076418003
 30
0.0
 10
19.24830076137639
 20
34.04674776752934
 30
0.0
 10
19.32079380535708
 20
34.03698348409904
 30
0.0
 10
19.46728118219394
 20
34.02337612307585
 30
0.0
 10
19.54128308536021
 20
34.01956290340377
 30
0.0
 10
19.6536316943294
 20
34.01915083835853
 30
0.0
 10
19.69130377440488
 20
34.01989121406365
 30
0.0
 10
19.76709962919832
 20
34.02315348600428
 30
0.0
 10
19.80486620688751
 20
34.02566111128873
 30
0.0
 10
19.91736257060296
 20
34.03553260177763
 30
0.0
 10
19.99149636053322
 20
34.04525172656167
 30
0.0
 10
20.13849813558513
 20
34.06928864063611
 30
0.0
 10
20.21137029689205
 20
34.08359125785986
 30
0.0
 10
20.35625735025108
 20
34.11531094855506
 30
0.0
 10
20.42827225300637
 20
34.13272798314189
 30
0.0
 10
20.5
 20
34.15118825362102
 30
0.0
  0
SPLINE
  5
4E2
330
1F
100
AcDbEntity
  8
0
  6
Continuous
 62
     7
370
    25
100
AcDbSpline
210
0.0
220
0.0
230
1.0
 70
    24
 71
     3
 72
    11
 73
     7
 74
     0
 42
0.000000001
 43
0.00000001
 40
0.0
 40
0.0
 40
0.0
 40
0.0
 40
0.2786715149070172
 40
0.5572388201020749
 40
0.8413357571247592
 40
1.0
 40
1.0
 40
1.0
 40
1.0
 10
20.5
 20
34.15118825362102
 30
0.0
 10
20.5
 20
34.13130873888031
 30
0.0
 10
20.5
 20
34.09155714337902
 30
0.0
 10
20.5
 20
34.04704640355861
 30
0.0
 10
20.5
 20
34.0211272860957
 30
0.0
 10
20.5
 20
34.02222853567816
 30
0.0
 10
20.5
 20
34.02262317039131
 30
0.0
  0
SPLINE
  5
4E3
330
1F
100
AcDbEntity
  8
0
  6
Continuous
 62
     7
370
    25
100
AcDbSpline
210
0.0
220
0.0
230
1.0
 70
     8
 71
     3
 72
    24
 73
    20
 74
     0
 42
0.000000001
 43
0.00000001
 40
0.0
 40
0.0
 40
0.0
 40
0.0
 40
0.125
 40
0.125
 40
0.25
 40
0.25
 40
0.375
 40
0.375
 40
0.5
 40
0.5
 40
0.5625
 40
0.5625
 40
0.625
 40
0.625
 40
0.75
 40
0.75
 40
0.875
 40
0.875
 40
1.0
 40
1.0
 40
1.0
 40
1.0
 10
20.5
 20
8.568269695644897
 30
0.0
 10
20.42962359522363
 20
8.586382176825097
 30
0.0
 10
20.35899098772276
 20
8.603484173552452
 30
0.0
 10
20.21696858640338
 20
8.63470176238039
 30
0.0
 10
20.1455787496357
 20
8.648817185085887
 30
0.0
 10
20.00169923862362
 20
8.672710181736576
 30
0.0
 10
19.92920619464293
 20
8.682474465166884
 30
0.0
 10
19.78271881780607
 20
8.696081826190067
 30
0.0
 10
19.7087169146398
 20
8.699895045862165
 30
0.0
 10
19.59636830567061
 20
8.7003071109074
 30
0.0
 10
19.55869622559513
 20
8.699566735202273
 30
0.0
 10
19.48290037080169
 20
8.69630446326164
 30
0.0
 10
19.4451337931125
 20
8.693796837977196
 30
0.0
 10
19.33263742939705
 20
8.683925347488284
 30
0.0
 10
19.2585036394668
 20
8.674206222704248
 30
0.0
 10
19.11150186441488
 20
8.650169308629804
 30
0.0
 10
19.03862970310796
 20
8.635866691406063
 30
0.0
 10
18.89374264974893
 20
8.604147000710856
 30
0.0
 10
18.82172774699363
 20
8.586729966124024
 30
0.0
 10
18.75
 20
8.568269695644897
 30
0.0
  0
SPLINE
  5
4E4
330
1F
100
AcDbEntity
  8
0
  6
Continuous
 62
     7
370
    25
100
AcDbSpline
210
0.0
220
0.0
230
1.0
 70
    24
 71
     3
 72
    11
 73
     7
 74
     0
 42
0.000000001
 43
0.00000001
 40
0.0
 40
0.0
 40
0.0
 40
0.0
 40
0.1253116928736593
 40
0.3426386129371564
 40
0.5600332439329536
 40
1.0
 40
1.0
 40
1.0
 40
1.0
 10
20.5
 20
8.696834778874615
 30
0.0
 10
20.5
 20
8.697662778629613
 30
0.0
 10
20.5
 20
8.699926770768403
 30
0.0
 10
20.5
 20
8.682929301066213
 30
0.0
 10
20.5
 20
8.645321055228466
 30
0.0
 10
20.5
 20
8.599162949352804
 30
0.0
 10
20.5
 20
8.568269695644897
 30
0.0
  0
SPLINE
  5
4E5
330
1F
100
AcDbEntity
  8
0
  6
Continuous
 62
     7
370
    25
100
AcDbSpline
210
0.0
220
0.0
230
1.0
 70
    24
 71
     3
 72
    11
 73
     7
 74
     0
 42
0.000000001
 43
0.00000001
 40
0.0
 40
0.0
 40
0.0
 40
0.0
 40
0.278671514907017
 40
0.5572388201020754
 40
0.8413357571247603
 40
1.0
 40
1.0
 40
1.0
 40
1.0
 10
18.75
 20
8.568269695644897
 30
0.0
 10
18.75
 20
8.588149210385609
 30
0.0
 10
18.75
 20
8.627900805886908
 30
0.0
 10
18.75
 20
8.672411545707304
 30
0.0
 10
18.75
 20
8.698330663170221
 30
0.0
 10
18.75
 20
8.697229413587754
 30
0.0
 10
18.75
 20
8.696834778874615
 30
0.0
  0
LINE
  5
4E6
330
1F
100
AcDbEntity
  8
0
  6
Continuous
 62
     7
370
    25
100
AcDbLine
 10
18.75
 20
34.0192720222045
 30
0.0
 11
18.9692873631535
 21
33.93945794926591
 31
0.0
  0
LINE
  5
4E7
330
1F
100
AcDbEntity
  8
0
  6
Continuous
 62
     7
370
    25
100
AcDbLine
 10
20.28071263684651
 20
33.93945794926591
 30
0.0
 11
20.5
 21
34.0192720222045
 31
0.0
  0
LINE
  5
4E8
330
1F
100
AcDbEntity
  8
0
  6
Continuous
 62
     7
370
    25
100
AcDbLine
 10
20.5
 20
8.700185927061419
 30
0.0
 11
20.28071263684654
 21
8.780000000000001
 31
0.0
  0
LINE
  5
4E9
330
1F
100
AcDbEntity
  8
0
  6
Continuous
 62
     7
370
    25
100
AcDbLine
 10
18.96928736315347
 20
8.780000000000001
 30
0.0
 11
18.75
 21
8.700185927061419
 31
0.0
  0
LINE
  5
4EA
330
1F
100
AcDbEntity
  8
0
  6
Continuous
 62
     7
370
    25
100
AcDbLine
 10
20.46999999996233
 20
22.71571452162615
 30
0.0
 11
20.45320157470483
 21
23.15271452163147
 31
0.0
  0
LINE
  5
4EB
330
1F
100
AcDbEntity
  8
0
  6
Continuous
 62
     7
370
    25
100
AcDbLine
 10
18.79679842529517
 20
23.15271452163147
 30
0.0
 11
18.78000000003767
 21
22.71571452162615
 31
0.0
  0
LINE
  5
4EC
330
1F
100
AcDbEntity
  8
0
  6
Continuous
 62
     7
370
    25
100
AcDbLine
 10
18.78000000003767
 20
20.00374342763975
 30
0.0
 11
18.79679842529517
 21
19.56674342763443
 31
0.0
  0
LINE
  5
4ED
330
1F
100
AcDbEntity
  8
0
  6
Continuous
 62
     7
370
    25
100
AcDbLine
 10
20.45320157470483
 20
19.56674342763443
 30
0.0
 11
20.46999999996233
 21
20.00374342763975
 31
0.0
  0
LINE
  5
4EE
330
1F
100
AcDbEntity
  8
0
  6
Continuous
 62
     7
370
    25
100
AcDbLine
 10
18.80160266651293
 20
19.44176424774043
 30
0.0
 11
18.81121351699556
 21
19.19174428476225
 31
0.0
  0
LINE
  5
4EF
330
1F
100
AcDbEntity
  8
0
  6
Continuous
 62
     7
370
    25
100
AcDbLine
 10
20.43878648300444
 20
19.19174428476225
 30
0.0
 11
20.44839733348707
 21
19.44176424774043
 31
0.0
  0
LINE
  5
4F0
330
1F
100
AcDbEntity
  8
0
  6
Continuous
 62
     7
370
    25
100
AcDbLine
 10
20.44839733348707
 20
23.27769370152547
 30
0.0
 11
20.43878648300444
 21
23.52771366450365
 31
0.0
  0
LINE
  5
4F1
330
1F
100
AcDbEntity
  8
0
  6
Continuous
 62
     7
370
    25
100
AcDbLine
 10
18.81121351699556
 20
23.52771366450365
 30
0.0
 11
18.80160266651293
 21
23.27769370152547
 31
0.0
  0
LINE
  5
4F2
330
1F
100
AcDbEntity
  8
0
  6
Continuous
 62
     7
370
    25
100
AcDbLine
 10
18.81601775821339
 20
19.06676510486825
 30
0.0
 11
19.17178736315352
 21
9.811652498917004
 31
0.0
  0
LINE
  5
4F3
330
1F
100
AcDbEntity
  8
0
  6
Continuous
 62
     7
370
    25
100
AcDbLine
 10
20.07821263684649
 20
9.811652498917004
 30
0.0
 11
20.43398224178661
 21
19.06676510486825
 31
0.0
  0
LINE
  5
4F4
330
1F
100
AcDbEntity
  8
0
  6
Continuous
 62
     7
370
    25
100
AcDbLine
 10
20.43398224178661
 20
23.65269284439765
 30
0.0
 11
20.07821263684635
 21
32.9078054503489
 31
0.0
  0
LINE
  5
4F5
330
1F
100
AcDbEntity
  8
0
  6
Continuous
 62
     7
370
    25
100
AcDbLine
 10
19.17178736315366
 20
32.9078054503489
 30
0.0
 11
18.81601775821339
 21
23.65269284439765
 31
0.0
  0
LINE
  5
4F6
330
1F
100
AcDbEntity
  8
0
  6
Continuous
 62
     7
370
    25
100
AcDbLine
 10
20.28071263684659
 20
33.37652178553111
 30
0.0
 11
20.28071263684659
 21
33.50158562178747
 31
0.0
  0
LINE
  5
4F7
330
1F
100
AcDbEntity
  8
0
  6
Continuous
 62
     7
370
    25
100
AcDbLine
 10
18.96928736315342
 20
33.50158562178747
 30
0.0
 11
18.96928736315342
 21
33.37652178553111
 31
0.0
  0
LINE
  5
4F8
330
1F
100
AcDbEntity
  8
0
  6
Continuous
 62
     7
370
    25
100
AcDbLine
 10
20.28071263684659
 20
9.217872327478434
 30
0.0
 11
20.28071263684659
 21
9.342936163734787
 31
0.0
  0
LINE
  5
4F9
330
1F
100
AcDbEntity
  8
0
  6
Continuous
 62
     7
370
    25
100
AcDbLine
 10
18.96928736315342
 20
9.342936163734787
 30
0.0
 11
18.96928736315342
 21
9.217872327478434
 31
0.0
  0
LINE
  5
4FA
330
1F
100
AcDbEntity
  8
0
  6
Continuous
 62
     7
370
    25
100
AcDbLine
 10
18.98475000000162
 20
21.03442978791898
 30
0.0
 11
18.98475000000162
 21
20.90942978791889
 31
0.0
  0
LINE
  5
4FB
330
1F
100
AcDbEntity
  8
0
  6
Continuous
 62
     7
370
    25
100
AcDbLine
 10
20.26524999999839
 20
20.90942978791889
 30
0.0
 11
20.26524999999839
 21
21.03442978791898
 31
0.0
  0
LINE
  5
4FC
330
1F
100
AcDbEntity
  8
0
  6
Continuous
 62
     7
370
    25
100
AcDbLine
 10
18.98475000000162
 20
21.81002816134702
 30
0.0
 11
18.98475000000162
 21
21.68502816134693
 31
0.0
  0
LINE
  5
4FD
330
1F
100
AcDbEntity
  8
0
  6
Continuous
 62
     7
370
    25
100
AcDbLine
 10
20.26524999999839
 20
21.68502816134693
 30
0.0
 11
20.26524999999839
 21
21.81002816134702
 31
0.0
  0
LINE
  5
4FE
330
1F
100
AcDbEntity
  8
0
  6
Continuous
 62
     7
370
    25
100
AcDbLine
 10
19.1717873631533
 20
33.09602178553126
 30
0.0
 11
19.23428736315327
 21
33.07691361794009
 31
0.0
  0
LINE
  5
4FF
330
1F
100
AcDbEntity
  8
0
  6
Continuous
 62
     7
370
    25
100
AcDbLine
 10
20.01571263684674
 20
33.07691361794009
 30
0.0
 11
20.07821263684671
 21
33.09602178553126
 31
0.0
  0
LINE
  5
500
330
1F
100
AcDbEntity
  8
0
  6
Continuous
 62
     7
370
    25
100
AcDbLine
 10
20.07821263684671
 20
9.623436163734638
 30
0.0
 11
20.01571263684674
 21
9.642544331325821
 31
0.0
  0
LINE
  5
501
330
1F
100
AcDbEntity
  8
0
  6
Continuous
 62
     7
370
    25
100
AcDbLine
 10
19.23428736315327
 20
9.642544331325821
 30
0.0
 11
19.1717873631533
 21
9.623436163734638
 31
0.0
  0
LINE
  5
502
330
1F
100
AcDbEntity
  8
0
  6
Continuous
 62
     7
370
    25
100
AcDbLine
 10
19.17178736315337
 20
9.811652498917004
 30
0.0
 11
19.23428736315327
 21
9.792544331325821
 31
0.0
  0
LINE
  5
503
330
1F
100
AcDbEntity
  8
0
  6
Continuous
 62
     7
370
    25
100
AcDbLine
 10
20.01571263684674
 20
9.792544331325821
 30
0.0
 11
20.07821263684664
 21
9.811652498917004
 31
0.0
  0
LINE
  5
504
330
1F
100
AcDbEntity
  8
0
  6
Continuous
 62
     7
370
    25
100
AcDbLine
 10
20.07821263684635
 20
32.90780545034899
 30
0.0
 11
20.01571263684674
 21
32.92691361794009
 31
0.0
  0
LINE
  5
505
330
1F
100
AcDbEntity
  8
0
  6
Continuous
 62
     7
370
    25
100
AcDbLine
 10
19.23428736315327
 20
32.92691361794009
 30
0.0
 11
19.17178736315366
 21
32.90780545034899
 31
0.0
  0
LINE
  5
506
330
1F
100
AcDbEntity
  8
0
  6
Continuous
 62
     7
370
    25
100
AcDbLine
 10
19.18750000000912
 20
22.25732010515157
 30
0.0
 11
19.24000000001155
 21
22.24126924437488
 31
0.0
  0
LINE
  5
507
330
1F
100
AcDbEntity
  8
0
  6
Continuous
 62
     7
370
    25
100
AcDbLine
 10
20.00999999998846
 20
22.24126924437488
 30
0.0
 11
20.06249999999088
 21
22.25732010515157
 31
0.0
  0
LINE
  5
508
330
1F
100
AcDbEntity
  8
0
  6
Continuous
 62
     7
370
    25
100
AcDbLine
 10
20.06249999999088
 20
20.46213784411433
 30
0.0
 11
20.00999999998846
 21
20.47818870489103
 31
0.0
  0
LINE
  5
509
330
1F
100
AcDbEntity
  8
0
  6
Continuous
 62
     7
370
    25
100
AcDbLine
 10
19.24000000001155
 20
20.47818870489103
 30
0.0
 11
19.18750000000912
 21
20.46213784411433
 31
0.0
  0
LINE
  5
50A
330
1F
100
AcDbEntity
  8
0
  6
Continuous
 62
     7
370
    25
100
AcDbLine
 10
20.0624999999897
 20
22.09121838359795
 30
0.0
 11
20.00999999998846
 21
22.10726924437486
 31
0.0
  0
LINE
  5
50B
330
1F
100
AcDbEntity
  8
0
  6
Continuous
 62
     7
370
    25
100
AcDbLine
 10
19.24000000001155
 20
22.10726924437486
 30
0.0
 11
19.18750000001031
 21
22.09121838359795
 31
0.0
  0
LINE
  5
50C
330
1F
100
AcDbEntity
  8
0
  6
Continuous
 62
     7
370
    25
100
AcDbLine
 10
19.18750000001031
 20
20.62823956566795
 30
0.0
 11
19.24000000001155
 21
20.61218870489105
 31
0.0
  0
LINE
  5
50D
330
1F
100
AcDbEntity
  8
0
  6
Continuous
 62
     7
370
    25
100
AcDbLine
 10
20.00999999998846
 20
20.61218870489105
 30
0.0
 11
20.0624999999897
 21
20.62823956566795
 31
0.0
  0
LINE
  5
50E
330
1F
100
AcDbEntity
  8
0
  6
Continuous
 62
     7
370
    25
100
AcDbLine
 10
20.01571263684674
 20
32.92691361794009
 30
0.0
 11
20.01571263684674
 21
33.07691361794009
 31
0.0
  0
LINE
  5
50F
330
1F
100
AcDbEntity
  8
0
  6
Continuous
 62
     7
370
    25
100
AcDbLine
 10
19.23428736315327
 20
33.07691361794009
 30
0.0
 11
19.23428736315327
 21
32.92691361794009
 31
0.0
  0
LINE
  5
510
330
1F
100
AcDbEntity
  8
0
  6
Continuous
 62
     7
370
    25
100
AcDbLine
 10
20.01571263684674
 20
9.642544331325821
 30
0.0
 11
20.01571263684674
 21
9.792544331325821
 31
0.0
  0
LINE
  5
511
330
1F
100
AcDbEntity
  8
0
  6
Continuous
 62
     7
370
    25
100
AcDbLine
 10
19.23428736315327
 20
9.792544331325821
 30
0.0
 11
19.23428736315327
 21
9.642544331325821
 31
0.0
  0
LINE
  5
512
330
1F
100
AcDbEntity
  8
0
  6
Continuous
 62
     7
370
    25
100
AcDbLine
 10
19.24000000001155
 20
20.61218870489105
 30
0.0
 11
19.24000000001155
 21
20.47818870489103
 31
0.0
  0
LINE
  5
513
330
1F
100
AcDbEntity
  8
0
  6
Continuous
 62
     7
370
    25
100
AcDbLine
 10
20.00999999998846
 20
20.47818870489103
 30
0.0
 11
20.00999999998846
 21
20.61218870489105
 31
0.0
  0
LINE
  5
514
330
1F
100
AcDbEntity
  8
0
  6
Continuous
 62
     7
370
    25
100
AcDbLine
 10
19.24000000001155
 20
22.24126924437488
 30
0.0
 11
19.24000000001155
 21
22.10726924437486
 31
0.0
  0
LINE
  5
515
330
1F
100
AcDbEntity
  8
0
  6
Continuous
 62
     7
370
    25
100
AcDbLine
 10
20.00999999998846
 20
22.10726924437486
 30
0.0
 11
20.00999999998846
 21
22.24126924437488
 31
0.0
  0
LINE
  5
516
330
1F
100
AcDbEntity
  8
0
  6
Continuous
 62
     7
370
    25
100
AcDbLine
 10
19.25
 20
0.5000000000000018
 30
0.0
 11
19.25
 21
0.0
 31
0.0
  0
LINE
  5
517
330
1F
100
AcDbEntity
  8
0
  6
Continuous
 62
     7
370
    25
100
AcDbLine
 10
20.0
 20
0.0
 30
0.0
 11
20.0
 21
0.5000000000000018
 31
0.0
  0
LINE
  5
518
330
1F
100
AcDbEntity
  8
0
  6
Continuous
 62
     7
370
    25
100
AcDbLine
 10
18.9692873631535
 20
33.93945794926591
 30
0.0
 11
20.28071263684651
 21
33.93945794926591
 31
0.0
  0
LINE
  5
519
330
1F
100
AcDbEntity
  8
0
  6
Continuous
 62
     7
370
    25
100
AcDbLine
 10
18.75
 20
42.00045794926591
 30
0.0
 11
20.5
 21
42.00045794926591
 31
0.0
  0
LINE
  5
51A
330
1F
100
AcDbEntity
  8
0
  6
Continuous
 62
     7
370
    25
100
AcDbLine
 10
18.75
 20
42.00045794926591
 30
0.0
 11
18.75
 21
34.15118825362102
 31
0.0
  0
LINE
  5
51B
330
1F
100
AcDbEntity
  8
0
  6
Continuous
 62
     7
370
    25
100
AcDbLine
 10
20.5
 20
42.00045794926591
 30
0.0
 11
20.5
 21
34.15118825362102
 31
0.0
  0
LINE
  5
51C
330
1F
100
AcDbEntity
  8
0
  6
Continuous
 62
     7
370
    25
100
AcDbLine
 10
20.5
 20
0.5000000000000018
 30
0.0
 11
20.5
 21
8.568269695644897
 31
0.0
  0
LINE
  5
51D
330
1F
100
AcDbEntity
  8
0
  6
Continuous
 62
     7
370
    25
100
AcDbLine
 10
18.75
 20
0.5000000000000018
 30
0.0
 11
18.75
 21
8.568269695644897
 31
0.0
  0
LINE
  5
51E
330
1F
100
AcDbEntity
  8
0
  6
Continuous
 62
     7
370
    25
100
AcDbLine
 10
20.5
 20
0.5000000000000018
 30
0.0
 11
18.75
 21
0.5000000000000018
 31
0.0
  0
LINE
  5
51F
330
1F
100
AcDbEntity
  8
0
  6
Continuous
 62
     7
370
    25
100
AcDbLine
 10
18.96928736315347
 20
8.780000000000001
 30
0.0
 11
20.28071263684654
 21
8.780000000000001
 31
0.0
  0
LINE
  5
520
330
1F
100
AcDbEntity
  8
0
  6
Continuous
 62
     7
370
    25
100
AcDbLine
 10
20.28071263684659
 20
33.50158562178747
 30
0.0
 11
18.96928736315341
 21
33.50158562178747
 31
0.0
  0
LINE
  5
521
330
1F
100
AcDbEntity
  8
0
  6
Continuous
 62
     7
370
    25
100
AcDbLine
 10
20.28071263684659
 20
9.217872327478434
 30
0.0
 11
18.96928736315342
 21
9.217872327478434
 31
0.0
  0
LINE
  5
522
330
1F
100
AcDbEntity
  8
0
  6
Continuous
 62
     7
370
    25
100
AcDbLine
 10
18.98475000000162
 20
21.68502816134693
 30
0.0
 11
20.26524999999839
 21
21.68502816134693
 31
0.0
  0
LINE
  5
523
330
1F
100
AcDbEntity
  8
0
  6
Continuous
 62
     7
370
    25
100
AcDbLine
 10
18.98475000000162
 20
21.03442978791898
 30
0.0
 11
20.26524999999839
 21
21.03442978791898
 31
0.0
  0
LINE
  5
524
330
1F
100
AcDbEntity
  8
0
  6
Continuous
 62
     7
370
    25
100
AcDbLine
 10
18.79679842529517
 20
23.15271452163147
 30
0.0
 11
20.45320157470483
 21
23.15271452163147
 31
0.0
  0
LINE
  5
525
330
1F
100
AcDbEntity
  8
0
  6
Continuous
 62
     7
370
    25
100
AcDbLine
 10
18.78000000003767
 20
22.71571452162615
 30
0.0
 11
20.46999999996233
 21
22.71571452162615
 31
0.0
  0
LINE
  5
526
330
1F
100
AcDbEntity
  8
0
  6
Continuous
 62
     7
370
    25
100
AcDbLine
 10
19.18750000000912
 20
22.25732010515157
 30
0.0
 11
20.06249999999088
 21
22.25732010515157
 31
0.0
  0
LINE
  5
527
330
1F
100
AcDbEntity
  8
0
  6
Continuous
 62
     7
370
    25
100
AcDbLine
 10
18.78000000003767
 20
20.00374342763975
 30
0.0
 11
20.46999999996233
 21
20.00374342763975
 31
0.0
  0
LINE
  5
528
330
1F
100
AcDbEntity
  8
0
  6
Continuous
 62
     7
370
    25
100
AcDbLine
 10
18.79679842529517
 20
19.56674342763443
 30
0.0
 11
20.45320157470483
 21
19.56674342763443
 31
0.0
  0
LINE
  5
529
330
1F
100
AcDbEntity
  8
0
  6
Continuous
 62
     7
370
    25
100
AcDbLine
 10
19.18750000000912
 20
20.46213784411433
 30
0.0
 11
20.06249999999088
 21
20.46213784411433
 31
0.0
  0
LINE
  5
52A
330
1F
100
AcDbEntity
  8
0
  6
Continuous
 62
     7
370
    25
100
AcDbLine
 10
18.80160266651293
 20
23.27769370152547
 30
0.0
 11
20.44839733348707
 21
23.27769370152547
 31
0.0
  0
LINE
  5
52B
330
1F
100
AcDbEntity
  8
0
  6
Continuous
 62
     7
370
    25
100
AcDbLine
 10
18.80160266651293
 20
19.44176424774043
 30
0.0
 11
20.44839733348707
 21
19.44176424774043
 31
0.0
  0
LINE
  5
52C
330
1F
100
AcDbEntity
  8
0
  6
Continuous
 62
     7
370
    25
100
AcDbLine
 10
18.81121351699556
 20
19.19174428476225
 30
0.0
 11
20.43878648300444
 21
19.19174428476225
 31
0.0
  0
LINE
  5
52D
330
1F
100
AcDbEntity
  8
0
  6
Continuous
 62
     7
370
    25
100
AcDbLine
 10
18.81121351699556
 20
23.52771366450365
 30
0.0
 11
20.43878648300444
 21
23.52771366450365
 31
0.0
  0
LINE
  5
52E
330
1F
100
AcDbEntity
  8
0
  6
Continuous
 62
     7
370
    25
100
AcDbLine
 10
18.81601775821339
 20
19.06676510486825
 30
0.0
 11
20.43398224178661
 21
19.06676510486825
 31
0.0
  0
LINE
  5
52F
330
1F
100
AcDbEntity
  8
0
  6
Continuous
 62
     7
370
    25
100
AcDbLine
 10
18.81601775821339
 20
23.65269284439766
 30
0.0
 11
20.43398224178661
 21
23.65269284439766
 31
0.0
  0
LINE
  5
530
330
1F
100
AcDbEntity
  8
0
  6
Continuous
 62
     7
370
    25
100
AcDbLine
 10
20.07821263684664
 20
9.811652498917004
 30
0.0
 11
19.17178736315337
 21
9.811652498917004
 31
0.0
  0
LINE
  5
531
330
1F
100
AcDbEntity
  8
0
  6
Continuous
 62
     7
370
    25
100
AcDbLine
 10
19.17178736315366
 20
32.9078054503489
 30
0.0
 11
20.07821263684635
 21
32.9078054503489
 31
0.0
  0
LINE
  5
532
330
1F
100
AcDbEntity
  8
0
  6
Continuous
 62
     7
370
    25
100
AcDbLine
 10
20.28071263684659
 20
33.37652178553111
 30
0.0
 11
18.96928736315342
 21
33.37652178553111
 31
0.0
  0
LINE
  5
533
330
1F
100
AcDbEntity
  8
0
  6
Continuous
 62
     7
370
    25
100
AcDbLine
 10
20.07821263684671
 20
33.09602178553126
 30
0.0
 11
19.1717873631533
 21
33.09602178553126
 31
0.0
  0
LINE
  5
534
330
1F
100
AcDbEntity
  8
0
  6
Continuous
 62
     7
370
    25
100
AcDbLine
 10
20.28071263684659
 20
9.342936163734787
 30
0.0
 11
18.96928736315342
 21
9.342936163734787
 31
0.0
  0
LINE
  5
535
330
1F
100
AcDbEntity
  8
0
  6
Continuous
 62
     7
370
    25
100
AcDbLine
 10
20.07821263684671
 20
9.623436163734638
 30
0.0
 11
19.1717873631533
 21
9.623436163734638
 31
0.0
  0
LINE
  5
536
330
1F
100
AcDbEntity
  8
0
  6
Continuous
 62
     7
370
    25
100
AcDbLine
 10
18.98475000000162
 20
20.90942978791889
 30
0.0
 11
20.26524999999839
 21
20.90942978791889
 31
0.0
  0
LINE
  5
537
330
1F
100
AcDbEntity
  8
0
  6
Continuous
 62
     7
370
    25
100
AcDbLine
 10
18.98475000000162
 20
21.81002816134702
 30
0.0
 11
20.26524999999839
 21
21.81002816134702
 31
0.0
  0
LINE
  5
538
330
1F
100
AcDbEntity
  8
0
  6
Continuous
 62
     7
370
    25
100
AcDbLine
 10
19.18750000001031
 20
22.09121838359795
 30
0.0
 11
20.0624999999897
 21
22.09121838359795
 31
0.0
  0
LINE
  5
539
330
1F
100
AcDbEntity
  8
0
  6
Continuous
 62
     7
370
    25
100
AcDbLine
 10
19.18750000001031
 20
20.62823956566795
 30
0.0
 11
20.0624999999897
 21
20.62823956566795
 31
0.0
  0
LINE
  5
53A
330
1F
100
AcDbEntity
  8
0
  6
Continuous
 62
     7
370
    25
100
AcDbLine
 10
20.01571263684674
 20
33.07691361794009
 30
0.0
 11
19.23428736315327
 21
33.07691361794009
 31
0.0
  0
LINE
  5
53B
330
1F
100
AcDbEntity
  8
0
  6
Continuous
 62
     7
370
    25
100
AcDbLine
 10
20.01571263684674
 20
9.642544331325821
 30
0.0
 11
19.23428736315327
 21
9.642544331325821
 31
0.0
  0
LINE
  5
53C
330
1F
100
AcDbEntity
  8
0
  6
Continuous
 62
     7
370
    25
100
AcDbLine
 10
20.01571263684674
 20
9.792544331325821
 30
0.0
 11
19.23428736315327
 21
9.792544331325821
 31
0.0
  0
LINE
  5
53D
330
1F
100
AcDbEntity
  8
0
  6
Continuous
 62
     7
370
    25
100
AcDbLine
 10
20.01571263684674
 20
32.92691361794009
 30
0.0
 11
19.23428736315327
 21
32.92691361794009
 31
0.0
  0
LINE
  5
53E
330
1F
100
AcDbEntity
  8
0
  6
Continuous
 62
     7
370
    25
100
AcDbLine
 10
19.24000000001155
 20
22.24126924437488
 30
0.0
 11
20.00999999998846
 21
22.24126924437488
 31
0.0
  0
LINE
  5
53F
330
1F
100
AcDbEntity
  8
0
  6
Continuous
 62
     7
370
    25
100
AcDbLine
 10
19.24000000001155
 20
20.47818870489103
 30
0.0
 11
20.00999999998846
 21
20.47818870489103
 31
0.0
  0
LINE
  5
540
330
1F
100
AcDbEntity
  8
0
  6
Continuous
 62
     7
370
    25
100
AcDbLine
 10
19.24000000001155
 20
22.10726924437486
 30
0.0
 11
20.00999999998846
 21
22.10726924437486
 31
0.0
  0
LINE
  5
541
330
1F
100
AcDbEntity
  8
0
  6
Continuous
 62
     7
370
    25
100
AcDbLine
 10
19.24000000001155
 20
20.61218870489105
 30
0.0
 11
20.00999999998846
 21
20.61218870489105
 31
0.0
  0
LINE
  5
542
330
1F
100
AcDbEntity
  8
0
  6
Continuous
 62
     7
370
    25
100
AcDbLine
 10
20.0
 20
0.0
 30
0.0
 11
19.25
 21
0.0
 31
0.0
  0
ARC
  5
543
330
1F
100
AcDbEntity
  8
0
  6
Continuous
 62
     7
370
    25
100
AcDbCircle
 10
20.24874183401959
 20
33.72052178552669
 30
0.0
 40
0.2212581660103162
100
AcDbArc
 50
278.3080641087234
 51
81.69193589129985
  0
ARC
  5
544
330
1F
100
AcDbEntity
  8
0
  6
Continuous
 62
     7
370
    25
100
AcDbCircle
 10
19.00125816598042
 20
33.72052178552669
 30
0.0
 40
0.221258166010316
100
AcDbArc
 50
98.30806410870014
 51
261.6919358912801
  0
ARC
  5
545
330
1F
100
AcDbEntity
  8
0
  6
Continuous
 62
     7
370
    25
100
AcDbCircle
 10
20.24874183401958
 20
8.99893616373922
 30
0.0
 40
0.2212581660103113
100
AcDbArc
 50
278.3080641087115
 51
81.69193589127735
  0
ARC
  5
546
330
1F
100
AcDbEntity
  8
0
  6
Continuous
 62
     7
370
    25
100
AcDbCircle
 10
19.00125816598042
 20
8.99893616373922
 30
0.0
 40
0.2212581660103117
100
AcDbArc
 50
98.30806410872174
 51
261.6919358912922
  0
ARC
  5
547
330
1F
100
AcDbEntity
  8
0
  6
Continuous
 62
     7
370
    25
100
AcDbCircle
 10
19.14078662607417
 20
21.35972897463295
 30
0.0
 40
0.3607866260726432
100
AcDbArc
 50
115.6256890944938
 51
244.374310905508
  0
ARC
  5
548
330
1F
100
AcDbEntity
  8
0
  6
Continuous
 62
     7
370
    25
100
AcDbCircle
 10
20.10921337392583
 20
21.35972897463295
 30
0.0
 40
0.3607866260726432
100
AcDbArc
 50
295.625689094495
 51
64.37431090550622
  0
ARC
  5
549
330
1F
100
AcDbEntity
  8
0
  6
Continuous
 62
     7
370
    25
100
AcDbCircle
 10
18.64733372252564
 20
22.18745251647213
 30
0.0
 40
0.5446660327927961
100
AcDbArc
 50
7.369981209546943
 51
75.90244520866948
  0
ARC
  5
54A
330
1F
100
AcDbEntity
  8
0
  6
Continuous
 62
     7
370
    25
100
AcDbCircle
 10
20.60266627747437
 20
22.18745251647213
 30
0.0
 40
0.5446660327928025
100
AcDbArc
 50
104.0975547913307
 51
172.6300187904524
  0
ARC
  5
54B
330
1F
100
AcDbEntity
  8
0
  6
Continuous
 62
     7
370
    25
100
AcDbCircle
 10
18.64733372252563
 20
20.53200543279378
 30
0.0
 40
0.5446660327928026
100
AcDbArc
 50
284.0975547913326
 51
352.630018790454
  0
ARC
  5
54C
330
1F
100
AcDbEntity
  8
0
  6
Continuous
 62
     7
370
    25
100
AcDbCircle
 10
20.60266627747437
 20
20.53200543279377
 30
0.0
 40
0.5446660327927978
100
AcDbArc
 50
187.3699812095488
 51
255.9024452086711
  0
ARC
  5
54D
330
1F
100
AcDbEntity
  8
0
  6
Continuous
 62
     7
370
    25
100
AcDbCircle
 10
18.79350528147564
 20
23.21542303943619
 30
0.0
 40
0.0627949281509299
100
AcDbArc
 50
273.0061319068245
 51
82.59109821826293
  0
ARC
  5
54E
330
1F
100
AcDbEntity
  8
0
  6
Continuous
 62
     7
370
    25
100
AcDbCircle
 10
20.45649471852436
 20
23.21542303943619
 30
0.0
 40
0.0627949281509287
100
AcDbArc
 50
97.4089017817371
 51
266.9938680931818
  0
ARC
  5
54F
330
1F
100
AcDbEntity
  8
0
  6
Continuous
 62
     7
370
    25
100
AcDbCircle
 10
18.79350528147564
 20
19.50403490982972
 30
0.0
 40
0.062794928150929
100
AcDbArc
 50
277.4089017817403
 51
86.99386809317866
  0
ARC
  5
550
330
1F
100
AcDbEntity
  8
0
  6
Continuous
 62
     7
370
    25
100
AcDbCircle
 10
20.45649471852437
 20
19.50403490982972
 30
0.0
 40
0.0627949281509288
100
AcDbArc
 50
93.00613190682459
 51
262.5910982182629
  0
ARC
  5
551
330
1F
100
AcDbEntity
  8
0
  6
Continuous
 62
     7
370
    25
100
AcDbCircle
 10
18.80792037317617
 20
19.12903576695754
 30
0.0
 40
0.0627949281509208
100
AcDbArc
 50
277.4089017816792
 51
86.9938680933015
  0
ARC
  5
552
330
1F
100
AcDbEntity
  8
0
  6
Continuous
 62
     7
370
    25
100
AcDbCircle
 10
20.44207962682384
 20
19.12903576695754
 30
0.0
 40
0.0627949281509209
100
AcDbArc
 50
93.00613190669851
 51
262.591098218324
  0
ARC
  5
553
330
1F
100
AcDbEntity
  8
0
  6
Continuous
 62
     7
370
    25
100
AcDbCircle
 10
18.80792037317617
 20
23.59042218230837
 30
0.0
 40
0.0627949281509244
100
AcDbArc
 50
273.0061319066983
 51
82.59109821832443
  0
ARC
  5
554
330
1F
100
AcDbEntity
  8
0
  6
Continuous
 62
     7
370
    25
100
AcDbCircle
 10
20.44207962682384
 20
23.59042218230837
 30
0.0
 40
0.0627949281509226
100
AcDbArc
 50
97.40890178167881
 51
266.9938680933017
  0
ARC
  5
555
330
1F
100
AcDbEntity
  8
0
  6
Continuous
 62
     7
370
    25
100
AcDbCircle
 10
20.38581685564804
 20
33.08729948853554
 30
0.0
 40
0.3077278568626137
100
AcDbArc
 50
109.971290904408
 51
178.375779980159
  0
ARC
  5
556
330
1F
100
AcDbEntity
  8
0
  6
Continuous
 62
     7
370
    25
100
AcDbCircle
 10
18.86418314435197
 20
33.08729948853554
 30
0.0
 40
0.3077278568626142
100
AcDbArc
 50
1.624220019841021
 51
70.02870909559141
  0
ARC
  5
557
330
1F
100
AcDbEntity
  8
0
  6
Continuous
 62
     7
370
    25
100
AcDbCircle
 10
20.38581685564805
 20
9.632158460730363
 30
0.0
 40
0.3077278568626206
100
AcDbArc
 50
181.6242200198433
 51
250.0287090955921
  0
ARC
  5
558
330
1F
100
AcDbEntity
  8
0
  6
Continuous
 62
     7
370
    25
100
AcDbCircle
 10
18.86418314435196
 20
9.632158460730363
 30
0.0
 40
0.3077278568626207
100
AcDbArc
 50
289.9712909044109
 51
358.37577998016
  0
ARC
  5
559
330
1F
100
AcDbEntity
  8
0
  6
Continuous
 62
     7
370
    25
100
AcDbCircle
 10
18.87567944022497
 20
22.10236338955717
 30
0.0
 40
0.3120196671087754
100
AcDbArc
 50
290.4605942393521
 51
357.953021128537
  0
ARC
  5
55A
330
1F
100
AcDbEntity
  8
0
  6
Continuous
 62
     7
370
    25
100
AcDbCircle
 10
20.37432055977503
 20
22.10236338955716
 30
0.0
 40
0.3120196671087708
100
AcDbArc
 50
182.0469788714643
 51
249.5394057606512
  0
ARC
  5
55B
330
1F
100
AcDbEntity
  8
0
  6
Continuous
 62
     7
370
    25
100
AcDbCircle
 10
18.87567944022498
 20
20.61709455970874
 30
0.0
 40
0.3120196671087717
100
AcDbArc
 50
2.046978871464264
 51
69.53940576064979
  0
ARC
  5
55C
330
1F
100
AcDbEntity
  8
0
  6
Continuous
 62
     7
370
    25
100
AcDbCircle
 10
20.37432055977503
 20
20.61709455970874
 30
0.0
 40
0.3120196671087754
100
AcDbArc
 50
110.4605942393506
 51
177.9530211285358
  0
SPLINE
  5
5EC
330
1F
100
AcDbEntity
  8
0
  6
Continuous
 62
     7
370
    25
100
AcDbSpline
210
0.0
220
0.0
230
1.0
 70
    24
 71
     3
 72
    11
 73
     7
 74
     0
 42
0.000000001
 43
0.00000001
 40
0.0
 40
0.0
 40
0.0
 40
0.0
 40
0.1253116928736575
 40
0.3426386129371551
 40
0.5600332439329524
 40
0.9999999999999999
 40
0.9999999999999999
 40
0.9999999999999999
 40
0.9999999999999999
 10
25.00000000000001
 20
35.2726231703913
 30
0.0
 10
25.00000000000001
 20
35.27179517063631
 30
0.0
 10
25.00000000000001
 20
35.26953117849751
 30
0.0
 10
25.00000000000001
 20
35.28652864819971
 30
0.0
 10
25.00000000000001
 20
35.32413689403745
 30
0.0
 10
25.00000000000001
 20
35.37029499991311
 30
0.0
 10
25.00000000000001
 20
35.40118825362102
 30
0.0
  0
SPLINE
  5
5ED
330
1F
100
AcDbEntity
  8
0
  6
Continuous
 62
     7
370
    25
100
AcDbSpline
210
0.0
220
0.0
230
1.0
 70
     8
 71
     3
 72
    24
 73
    20
 74
     0
 42
0.000000001
 43
0.00000001
 40
0.0
 40
0.0
 40
0.0
 40
0.0
 40
0.1249999999999997
 40
0.1249999999999997
 40
0.2499999999999995
 40
0.2499999999999995
 40
0.3749999999999993
 40
0.3749999999999993
 40
0.4999999999999991
 40
0.4999999999999991
 40
0.5624999999999991
 40
0.5624999999999991
 40
0.6249999999999989
 40
0.6249999999999989
 40
0.7499999999999992
 40
0.7499999999999992
 40
0.8749999999999997
 40
0.8749999999999997
 40
1.0
 40
1.0
 40
1.0
 40
1.0
 10
25.00000000000001
 20
35.40118825362102
 30
0.0
 10
25.07037640477638
 20
35.38307577244082
 30
0.0
 10
25.14100901227726
 20
35.36597377571346
 30
0.0
 10
25.28303141359663
 20
35.33475618688553
 30
0.0
 10
25.35442125036431
 20
35.32064076418003
 30
0.0
 10
25.49830076137639
 20
35.29674776752934
 30
0.0
 10
25.57079380535708
 20
35.28698348409904
 30
0.0
 10
25.71728118219394
 20
35.27337612307585
 30
0.0
 10
25.79128308536022
 20
35.26956290340377
 30
0.0
 10
25.9036316943294
 20
35.26915083835853
 30
0.0
 10
25.94130377440488
 20
35.26989121406365
 30
0.0
 10
26.01709962919832
 20
35.27315348600428
 30
0.0
 10
26.05486620688751
 20
35.27566111128873
 30
0.0
 10
26.16736257060297
 20
35.28553260177763
 30
0.0
 10
26.24149636053322
 20
35.29525172656167
 30
0.0
 10
26.38849813558513
 20
35.3192886406361
 30
0.0
 10
26.46137029689205
 20
35.33359125785985
 30
0.0
 10
26.60625735025108
 20
35.36531094855506
 30
0.0
 10
26.67827225300638
 20
35.38272798314189
 30
0.0
 10
26.75000000000001
 20
35.40118825362102
 30
0.0
  0
SPLINE
  5
5EE
330
1F
100
AcDbEntity
  8
0
  6
Continuous
 62
     7
370
    25
100
AcDbSpline
210
0.0
220
0.0
230
1.0
 70
    24
 71
     3
 72
    11
 73
     7
 74
     0
 42
0.000000001
 43
0.00000001
 40
0.0
 40
0.0
 40
0.0
 40
0.0
 40
0.2786715149070172
 40
0.5572388201020749
 40
0.8413357571247592
 40
1.0
 40
1.0
 40
1.0
 40
1.0
 10
26.75000000000001
 20
35.40118825362102
 30
0.0
 10
26.75000000000001
 20
35.38130873888031
 30
0.0
 10
26.75000000000001
 20
35.34155714337902
 30
0.0
 10
26.75000000000001
 20
35.29704640355861
 30
0.0
 10
26.75000000000001
 20
35.2711272860957
 30
0.0
 10
26.75000000000001
 20
35.27222853567816
 30
0.0
 10
26.75000000000001
 20
35.2726231703913
 30
0.0
  0
SPLINE
  5
5EF
330
1F
100
AcDbEntity
  8
0
  6
Continuous
 62
     7
370
    25
100
AcDbSpline
210
0.0
220
0.0
230
1.0
 70
     8
 71
     3
 72
    24
 73
    20
 74
     0
 42
0.000000001
 43
0.00000001
 40
0.0
 40
0.0
 40
0.0
 40
0.0
 40
0.125
 40
0.125
 40
0.25
 40
0.25
 40
0.375
 40
0.375
 40
0.5
 40
0.5
 40
0.5625
 40
0.5625
 40
0.625
 40
0.625
 40
0.75
 40
0.75
 40
0.875
 40
0.875
 40
1.0
 40
1.0
 40
1.0
 40
1.0
 10
26.75000000000001
 20
9.818269695644894
 30
0.0
 10
26.67962359522364
 20
9.836382176825095
 30
0.0
 10
26.60899098772276
 20
9.853484173552452
 30
0.0
 10
26.46696858640339
 20
9.884701762380388
 30
0.0
 10
26.39557874963571
 20
9.898817185085885
 30
0.0
 10
26.25169923862362
 20
9.922710181736575
 30
0.0
 10
26.17920619464294
 20
9.932474465166884
 30
0.0
 10
26.03271881780607
 20
9.946081826190067
 30
0.0
 10
25.9587169146398
 20
9.949895045862164
 30
0.0
 10
25.84636830567062
 20
9.950307110907396
 30
0.0
 10
25.80869622559513
 20
9.949566735202271
 30
0.0
 10
25.7329003708017
 20
9.946304463261638
 30
0.0
 10
25.69513379311251
 20
9.943796837977194
 30
0.0
 10
25.58263742939705
 20
9.93392534748828
 30
0.0
 10
25.5085036394668
 20
9.924206222704246
 30
0.0
 10
25.36150186441489
 20
9.900169308629803
 30
0.0
 10
25.28862970310796
 20
9.885866691406061
 30
0.0
 10
25.14374264974893
 20
9.854147000710853
 30
0.0
 10
25.07172774699364
 20
9.836729966124022
 30
0.0
 10
25.00000000000001
 20
9.818269695644894
 30
0.0
  0
SPLINE
  5
5F0
330
1F
100
AcDbEntity
  8
0
  6
Continuous
 62
     7
370
    25
100
AcDbSpline
210
0.0
220
0.0
230
1.0
 70
    24
 71
     3
 72
    11
 73
     7
 74
     0
 42
0.000000001
 43
0.00000001
 40
0.0
 40
0.0
 40
0.0
 40
0.0
 40
0.1253116928736593
 40
0.3426386129371564
 40
0.5600332439329536
 40
1.0
 40
1.0
 40
1.0
 40
1.0
 10
26.75000000000001
 20
9.946834778874614
 30
0.0
 10
26.75000000000001
 20
9.947662778629612
 30
0.0
 10
26.75000000000001
 20
9.949926770768403
 30
0.0
 10
26.75000000000001
 20
9.932929301066212
 30
0.0
 10
26.75000000000001
 20
9.895321055228465
 30
0.0
 10
26.75000000000001
 20
9.849162949352802
 30
0.0
 10
26.75000000000001
 20
9.818269695644894
 30
0.0
  0
SPLINE
  5
5F1
330
1F
100
AcDbEntity
  8
0
  6
Continuous
 62
     7
370
    25
100
AcDbSpline
210
0.0
220
0.0
230
1.0
 70
    24
 71
     3
 72
    11
 73
     7
 74
     0
 42
0.000000001
 43
0.00000001
 40
0.0
 40
0.0
 40
0.0
 40
0.0
 40
0.278671514907017
 40
0.5572388201020754
 40
0.8413357571247603
 40
1.0
 40
1.0
 40
1.0
 40
1.0
 10
25.00000000000001
 20
9.818269695644894
 30
0.0
 10
25.00000000000001
 20
9.838149210385607
 30
0.0
 10
25.00000000000001
 20
9.877900805886906
 30
0.0
 10
25.00000000000001
 20
9.922411545707302
 30
0.0
 10
25.00000000000001
 20
9.94833066317022
 30
0.0
 10
25.00000000000001
 20
9.947229413587753
 30
0.0
 10
25.00000000000001
 20
9.946834778874614
 30
0.0
  0
LINE
  5
5F2
330
1F
100
AcDbEntity
  8
0
  6
Continuous
 62
     7
370
    25
100
AcDbLine
 10
25.00000000000001
 20
35.2692720222045
 30
0.0
 11
25.2192873631535
 21
35.1894579492659
 31
0.0
  0
LINE
  5
5F3
330
1F
100
AcDbEntity
  8
0
  6
Continuous
 62
     7
370
    25
100
AcDbLine
 10
26.53071263684652
 20
35.1894579492659
 30
0.0
 11
26.75000000000001
 21
35.2692720222045
 31
0.0
  0
LINE
  5
5F4
330
1F
100
AcDbEntity
  8
0
  6
Continuous
 62
     7
370
    25
100
AcDbLine
 10
26.75000000000001
 20
9.950185927061417
 30
0.0
 11
26.53071263684654
 21
10.03
 31
0.0
  0
LINE
  5
5F5
330
1F
100
AcDbEntity
  8
0
  6
Continuous
 62
     7
370
    25
100
AcDbLine
 10
25.21928736315347
 20
10.03
 30
0.0
 11
25.00000000000001
 21
9.950185927061417
 31
0.0
  0
LINE
  5
5F6
330
1F
100
AcDbEntity
  8
0
  6
Continuous
 62
     7
370
    25
100
AcDbLine
 10
26.71999999996233
 20
23.96571452162615
 30
0.0
 11
26.70320157470483
 21
24.40271452163147
 31
0.0
  0
LINE
  5
5F7
330
1F
100
AcDbEntity
  8
0
  6
Continuous
 62
     7
370
    25
100
AcDbLine
 10
25.04679842529518
 20
24.40271452163147
 30
0.0
 11
25.03000000003768
 21
23.96571452162615
 31
0.0
  0
LINE
  5
5F8
330
1F
100
AcDbEntity
  8
0
  6
Continuous
 62
     7
370
    25
100
AcDbLine
 10
25.03000000003768
 20
21.25374342763975
 30
0.0
 11
25.04679842529518
 21
20.81674342763443
 31
0.0
  0
LINE
  5
5F9
330
1F
100
AcDbEntity
  8
0
  6
Continuous
 62
     7
370
    25
100
AcDbLine
 10
26.70320157470483
 20
20.81674342763443
 30
0.0
 11
26.71999999996233
 21
21.25374342763975
 31
0.0
  0
LINE
  5
5FA
330
1F
100
AcDbEntity
  8
0
  6
Continuous
 62
     7
370
    25
100
AcDbLine
 10
25.05160266651294
 20
20.69176424774043
 30
0.0
 11
25.06121351699557
 21
20.44174428476225
 31
0.0
  0
LINE
  5
5FB
330
1F
100
AcDbEntity
  8
0
  6
Continuous
 62
     7
370
    25
100
AcDbLine
 10
26.68878648300445
 20
20.44174428476225
 30
0.0
 11
26.69839733348708
 21
20.69176424774043
 31
0.0
  0
LINE
  5
5FC
330
1F
100
AcDbEntity
  8
0
  6
Continuous
 62
     7
370
    25
100
AcDbLine
 10
26.69839733348707
 20
24.52769370152547
 30
0.0
 11
26.68878648300445
 21
24.77771366450365
 31
0.0
  0
LINE
  5
5FD
330
1F
100
AcDbEntity
  8
0
  6
Continuous
 62
     7
370
    25
100
AcDbLine
 10
25.06121351699557
 20
24.77771366450365
 30
0.0
 11
25.05160266651294
 21
24.52769370152547
 31
0.0
  0
LINE
  5
5FE
330
1F
100
AcDbEntity
  8
0
  6
Continuous
 62
     7
370
    25
100
AcDbLine
 10
25.0660177582134
 20
20.31676510486825
 30
0.0
 11
25.42178736315353
 21
11.061652498917
 31
0.0
  0
LINE
  5
5FF
330
1F
100
AcDbEntity
  8
0
  6
Continuous
 62
     7
370
    25
100
AcDbLine
 10
26.32821263684649
 20
11.061652498917
 30
0.0
 11
26.68398224178662
 21
20.31676510486825
 31
0.0
  0
LINE
  5
600
330
1F
100
AcDbEntity
  8
0
  6
Continuous
 62
     7
370
    25
100
AcDbLine
 10
26.68398224178661
 20
24.90269284439765
 30
0.0
 11
26.32821263684635
 21
34.1578054503489
 31
0.0
  0
LINE
  5
601
330
1F
100
AcDbEntity
  8
0
  6
Continuous
 62
     7
370
    25
100
AcDbLine
 10
25.42178736315366
 20
34.1578054503489
 30
0.0
 11
25.0660177582134
 21
24.90269284439765
 31
0.0
  0
LINE
  5
602
330
1F
100
AcDbEntity
  8
0
  6
Continuous
 62
     7
370
    25
100
AcDbLine
 10
26.5307126368466
 20
34.62652178553111
 30
0.0
 11
26.5307126368466
 21
34.75158562178747
 31
0.0
  0
LINE
  5
603
330
1F
100
AcDbEntity
  8
0
  6
Continuous
 62
     7
370
    25
100
AcDbLine
 10
25.21928736315342
 20
34.75158562178747
 30
0.0
 11
25.21928736315342
 21
34.62652178553111
 31
0.0
  0
LINE
  5
604
330
1F
100
AcDbEntity
  8
0
  6
Continuous
 62
     7
370
    25
100
AcDbLine
 10
26.53071263684659
 20
10.46787232747843
 30
0.0
 11
26.53071263684659
 21
10.59293616373479
 31
0.0
  0
LINE
  5
605
330
1F
100
AcDbEntity
  8
0
  6
Continuous
 62
     7
370
    25
100
AcDbLine
 10
25.21928736315342
 20
10.59293616373479
 30
0.0
 11
25.21928736315342
 21
10.46787232747843
 31
0.0
  0
LINE
  5
606
330
1F
100
AcDbEntity
  8
0
  6
Continuous
 62
     7
370
    25
100
AcDbLine
 10
25.23475000000163
 20
22.28442978791897
 30
0.0
 11
25.23475000000163
 21
22.15942978791888
 31
0.0
  0
LINE
  5
607
330
1F
100
AcDbEntity
  8
0
  6
Continuous
 62
     7
370
    25
100
AcDbLine
 10
26.51524999999839
 20
22.15942978791888
 30
0.0
 11
26.51524999999839
 21
22.28442978791897
 31
0.0
  0
LINE
  5
608
330
1F
100
AcDbEntity
  8
0
  6
Continuous
 62
     7
370
    25
100
AcDbLine
 10
25.23475000000163
 20
23.06002816134702
 30
0.0
 11
25.23475000000163
 21
22.93502816134693
 31
0.0
  0
LINE
  5
609
330
1F
100
AcDbEntity
  8
0
  6
Continuous
 62
     7
370
    25
100
AcDbLine
 10
26.51524999999839
 20
22.93502816134693
 30
0.0
 11
26.51524999999839
 21
23.06002816134702
 31
0.0
  0
LINE
  5
60A
330
1F
100
AcDbEntity
  8
0
  6
Continuous
 62
     7
370
    25
100
AcDbLine
 10
25.4217873631533
 20
34.34602178553126
 30
0.0
 11
25.48428736315327
 21
34.32691361794008
 31
0.0
  0
LINE
  5
60B
330
1F
100
AcDbEntity
  8
0
  6
Continuous
 62
     7
370
    25
100
AcDbLine
 10
26.26571263684674
 20
34.32691361794008
 30
0.0
 11
26.32821263684672
 21
34.34602178553126
 31
0.0
  0
LINE
  5
60C
330
1F
100
AcDbEntity
  8
0
  6
Continuous
 62
     7
370
    25
100
AcDbLine
 10
26.32821263684671
 20
10.87343616373464
 30
0.0
 11
26.26571263684674
 21
10.89254433132582
 31
0.0
  0
LINE
  5
60D
330
1F
100
AcDbEntity
  8
0
  6
Continuous
 62
     7
370
    25
100
AcDbLine
 10
25.48428736315327
 20
10.89254433132582
 30
0.0
 11
25.4217873631533
 21
10.87343616373464
 31
0.0
  0
LINE
  5
60E
330
1F
100
AcDbEntity
  8
0
  6
Continuous
 62
     7
370
    25
100
AcDbLine
 10
26.32821263684635
 20
34.15780545034899
 30
0.0
 11
26.26571263684674
 21
34.17691361794009
 31
0.0
  0
LINE
  5
60F
330
1F
100
AcDbEntity
  8
0
  6
Continuous
 62
     7
370
    25
100
AcDbLine
 10
25.48428736315327
 20
34.17691361794009
 30
0.0
 11
25.42178736315366
 21
34.15780545034899
 31
0.0
  0
LINE
  5
610
330
1F
100
AcDbEntity
  8
0
  6
Continuous
 62
     7
370
    25
100
AcDbLine
 10
25.42178736315337
 20
11.061652498917
 30
0.0
 11
25.48428736315328
 21
11.04254433132582
 31
0.0
  0
LINE
  5
611
330
1F
100
AcDbEntity
  8
0
  6
Continuous
 62
     7
370
    25
100
AcDbLine
 10
26.26571263684674
 20
11.04254433132582
 30
0.0
 11
26.32821263684665
 21
11.061652498917
 31
0.0
  0
LINE
  5
612
330
1F
100
AcDbEntity
  8
0
  6
Continuous
 62
     7
370
    25
100
AcDbLine
 10
25.43750000000912
 20
23.50732010515157
 30
0.0
 11
25.49000000001155
 21
23.49126924437487
 31
0.0
  0
LINE
  5
613
330
1F
100
AcDbEntity
  8
0
  6
Continuous
 62
     7
370
    25
100
AcDbLine
 10
26.25999999998846
 20
23.49126924437487
 30
0.0
 11
26.31249999999089
 21
23.50732010515157
 31
0.0
  0
LINE
  5
614
330
1F
100
AcDbEntity
  8
0
  6
Continuous
 62
     7
370
    25
100
AcDbLine
 10
26.31249999999089
 20
21.71213784411433
 30
0.0
 11
26.25999999998846
 21
21.72818870489103
 31
0.0
  0
LINE
  5
615
330
1F
100
AcDbEntity
  8
0
  6
Continuous
 62
     7
370
    25
100
AcDbLine
 10
25.49000000001155
 20
21.72818870489103
 30
0.0
 11
25.43750000000913
 21
21.71213784411433
 31
0.0
  0
LINE
  5
616
330
1F
100
AcDbEntity
  8
0
  6
Continuous
 62
     7
370
    25
100
AcDbLine
 10
26.3124999999897
 20
23.34121838359795
 30
0.0
 11
26.25999999998846
 21
23.35726924437486
 31
0.0
  0
LINE
  5
617
330
1F
100
AcDbEntity
  8
0
  6
Continuous
 62
     7
370
    25
100
AcDbLine
 10
25.49000000001155
 20
23.35726924437486
 30
0.0
 11
25.43750000001031
 21
23.34121838359795
 31
0.0
  0
LINE
  5
618
330
1F
100
AcDbEntity
  8
0
  6
Continuous
 62
     7
370
    25
100
AcDbLine
 10
25.43750000001031
 20
21.87823956566795
 30
0.0
 11
25.49000000001155
 21
21.86218870489104
 31
0.0
  0
LINE
  5
619
330
1F
100
AcDbEntity
  8
0
  6
Continuous
 62
     7
370
    25
100
AcDbLine
 10
26.25999999998846
 20
21.86218870489104
 30
0.0
 11
26.3124999999897
 21
21.87823956566795
 31
0.0
  0
LINE
  5
61A
330
1F
100
AcDbEntity
  8
0
  6
Continuous
 62
     7
370
    25
100
AcDbLine
 10
26.26571263684674
 20
34.17691361794009
 30
0.0
 11
26.26571263684674
 21
34.32691361794008
 31
0.0
  0
LINE
  5
61B
330
1F
100
AcDbEntity
  8
0
  6
Continuous
 62
     7
370
    25
100
AcDbLine
 10
25.48428736315327
 20
34.32691361794008
 30
0.0
 11
25.48428736315327
 21
34.17691361794009
 31
0.0
  0
LINE
  5
61C
330
1F
100
AcDbEntity
  8
0
  6
Continuous
 62
     7
370
    25
100
AcDbLine
 10
26.26571263684674
 20
10.89254433132582
 30
0.0
 11
26.26571263684674
 21
11.04254433132582
 31
0.0
  0
LINE
  5
61D
330
1F
100
AcDbEntity
  8
0
  6
Continuous
 62
     7
370
    25
100
AcDbLine
 10
25.48428736315328
 20
11.04254433132582
 30
0.0
 11
25.48428736315328
 21
10.89254433132582
 31
0.0
  0
LINE
  5
61E
330
1F
100
AcDbEntity
  8
0
  6
Continuous
 62
     7
370
    25
100
AcDbLine
 10
25.49000000001155
 20
21.86218870489104
 30
0.0
 11
25.49000000001155
 21
21.72818870489103
 31
0.0
  0
LINE
  5
61F
330
1F
100
AcDbEntity
  8
0
  6
Continuous
 62
     7
370
    25
100
AcDbLine
 10
26.25999999998846
 20
21.72818870489103
 30
0.0
 11
26.25999999998846
 21
21.86218870489104
 31
0.0
  0
LINE
  5
620
330
1F
100
AcDbEntity
  8
0
  6
Continuous
 62
     7
370
    25
100
AcDbLine
 10
25.49000000001155
 20
23.49126924437487
 30
0.0
 11
25.49000000001155
 21
23.35726924437486
 31
0.0
  0
LINE
  5
621
330
1F
100
AcDbEntity
  8
0
  6
Continuous
 62
     7
370
    25
100
AcDbLine
 10
26.25999999998846
 20
23.35726924437486
 30
0.0
 11
26.25999999998846
 21
23.49126924437487
 31
0.0
  0
LINE
  5
622
330
1F
100
AcDbEntity
  8
0
  6
Continuous
 62
     7
370
    25
100
AcDbLine
 10
25.50000000000001
 20
0.5000000000000018
 30
0.0
 11
25.50000000000001
 21
0.0
 31
0.0
  0
LINE
  5
623
330
1F
100
AcDbEntity
  8
0
  6
Continuous
 62
     7
370
    25
100
AcDbLine
 10
26.25000000000001
 20
0.0
 30
0.0
 11
26.25000000000001
 21
0.5000000000000018
 31
0.0
  0
LINE
  5
624
330
1F
100
AcDbEntity
  8
0
  6
Continuous
 62
     7
370
    25
100
AcDbLine
 10
25.2192873631535
 20
35.1894579492659
 30
0.0
 11
26.53071263684652
 21
35.1894579492659
 31
0.0
  0
LINE
  5
625
330
1F
100
AcDbEntity
  8
0
  6
Continuous
 62
     7
370
    25
100
AcDbLine
 10
25.00000000000001
 20
42.00045794926591
 30
0.0
 11
26.75000000000001
 21
42.00045794926591
 31
0.0
  0
LINE
  5
626
330
1F
100
AcDbEntity
  8
0
  6
Continuous
 62
     7
370
    25
100
AcDbLine
 10
25.00000000000001
 20
42.00045794926591
 30
0.0
 11
25.00000000000001
 21
35.40118825362102
 31
0.0
  0
LINE
  5
627
330
1F
100
AcDbEntity
  8
0
  6
Continuous
 62
     7
370
    25
100
AcDbLine
 10
26.75000000000001
 20
42.00045794926591
 30
0.0
 11
26.75000000000001
 21
35.40118825362102
 31
0.0
  0
LINE
  5
628
330
1F
100
AcDbEntity
  8
0
  6
Continuous
 62
     7
370
    25
100
AcDbLine
 10
26.75000000000001
 20
0.5000000000000018
 30
0.0
 11
26.75000000000001
 21
9.818269695644894
 31
0.0
  0
LINE
  5
629
330
1F
100
AcDbEntity
  8
0
  6
Continuous
 62
     7
370
    25
100
AcDbLine
 10
25.00000000000001
 20
0.5000000000000018
 30
0.0
 11
25.00000000000001
 21
9.818269695644894
 31
0.0
  0
LINE
  5
62A
330
1F
100
AcDbEntity
  8
0
  6
Continuous
 62
     7
370
    25
100
AcDbLine
 10
26.75000000000001
 20
0.5000000000000018
 30
0.0
 11
25.00000000000001
 21
0.5000000000000018
 31
0.0
  0
LINE
  5
62B
330
1F
100
AcDbEntity
  8
0
  6
Continuous
 62
     7
370
    25
100
AcDbLine
 10
25.21928736315347
 20
10.03
 30
0.0
 11
26.53071263684654
 21
10.03
 31
0.0
  0
LINE
  5
62C
330
1F
100
AcDbEntity
  8
0
  6
Continuous
 62
     7
370
    25
100
AcDbLine
 10
26.5307126368466
 20
34.75158562178747
 30
0.0
 11
25.21928736315342
 21
34.75158562178747
 31
0.0
  0
LINE
  5
62D
330
1F
100
AcDbEntity
  8
0
  6
Continuous
 62
     7
370
    25
100
AcDbLine
 10
26.53071263684659
 20
10.46787232747843
 30
0.0
 11
25.21928736315342
 21
10.46787232747843
 31
0.0
  0
LINE
  5
62E
330
1F
100
AcDbEntity
  8
0
  6
Continuous
 62
     7
370
    25
100
AcDbLine
 10
25.23475000000163
 20
22.93502816134693
 30
0.0
 11
26.51524999999839
 21
22.93502816134693
 31
0.0
  0
LINE
  5
62F
330
1F
100
AcDbEntity
  8
0
  6
Continuous
 62
     7
370
    25
100
AcDbLine
 10
25.23475000000163
 20
22.28442978791897
 30
0.0
 11
26.51524999999839
 21
22.28442978791897
 31
0.0
  0
LINE
  5
630
330
1F
100
AcDbEntity
  8
0
  6
Continuous
 62
     7
370
    25
100
AcDbLine
 10
25.04679842529518
 20
24.40271452163147
 30
0.0
 11
26.70320157470484
 21
24.40271452163147
 31
0.0
  0
LINE
  5
631
330
1F
100
AcDbEntity
  8
0
  6
Continuous
 62
     7
370
    25
100
AcDbLine
 10
25.03000000003768
 20
23.96571452162615
 30
0.0
 11
26.71999999996233
 21
23.96571452162615
 31
0.0
  0
LINE
  5
632
330
1F
100
AcDbEntity
  8
0
  6
Continuous
 62
     7
370
    25
100
AcDbLine
 10
25.43750000000912
 20
23.50732010515157
 30
0.0
 11
26.31249999999089
 21
23.50732010515157
 31
0.0
  0
LINE
  5
633
330
1F
100
AcDbEntity
  8
0
  6
Continuous
 62
     7
370
    25
100
AcDbLine
 10
25.03000000003768
 20
21.25374342763975
 30
0.0
 11
26.71999999996233
 21
21.25374342763975
 31
0.0
  0
LINE
  5
634
330
1F
100
AcDbEntity
  8
0
  6
Continuous
 62
     7
370
    25
100
AcDbLine
 10
25.04679842529518
 20
20.81674342763443
 30
0.0
 11
26.70320157470484
 21
20.81674342763443
 31
0.0
  0
LINE
  5
635
330
1F
100
AcDbEntity
  8
0
  6
Continuous
 62
     7
370
    25
100
AcDbLine
 10
25.43750000000913
 20
21.71213784411433
 30
0.0
 11
26.31249999999089
 21
21.71213784411433
 31
0.0
  0
LINE
  5
636
330
1F
100
AcDbEntity
  8
0
  6
Continuous
 62
     7
370
    25
100
AcDbLine
 10
25.05160266651294
 20
24.52769370152547
 30
0.0
 11
26.69839733348708
 21
24.52769370152547
 31
0.0
  0
LINE
  5
637
330
1F
100
AcDbEntity
  8
0
  6
Continuous
 62
     7
370
    25
100
AcDbLine
 10
25.05160266651294
 20
20.69176424774043
 30
0.0
 11
26.69839733348708
 21
20.69176424774043
 31
0.0
  0
LINE
  5
638
330
1F
100
AcDbEntity
  8
0
  6
Continuous
 62
     7
370
    25
100
AcDbLine
 10
25.06121351699557
 20
20.44174428476225
 30
0.0
 11
26.68878648300445
 21
20.44174428476225
 31
0.0
  0
LINE
  5
639
330
1F
100
AcDbEntity
  8
0
  6
Continuous
 62
     7
370
    25
100
AcDbLine
 10
25.06121351699557
 20
24.77771366450365
 30
0.0
 11
26.68878648300445
 21
24.77771366450365
 31
0.0
  0
LINE
  5
63A
330
1F
100
AcDbEntity
  8
0
  6
Continuous
 62
     7
370
    25
100
AcDbLine
 10
25.0660177582134
 20
20.31676510486825
 30
0.0
 11
26.68398224178662
 21
20.31676510486825
 31
0.0
  0
LINE
  5
63B
330
1F
100
AcDbEntity
  8
0
  6
Continuous
 62
     7
370
    25
100
AcDbLine
 10
25.0660177582134
 20
24.90269284439765
 30
0.0
 11
26.68398224178661
 21
24.90269284439765
 31
0.0
  0
LINE
  5
63C
330
1F
100
AcDbEntity
  8
0
  6
Continuous
 62
     7
370
    25
100
AcDbLine
 10
26.32821263684665
 20
11.061652498917
 30
0.0
 11
25.42178736315337
 21
11.061652498917
 31
0.0
  0
LINE
  5
63D
330
1F
100
AcDbEntity
  8
0
  6
Continuous
 62
     7
370
    25
100
AcDbLine
 10
25.42178736315366
 20
34.1578054503489
 30
0.0
 11
26.32821263684635
 21
34.1578054503489
 31
0.0
  0
LINE
  5
63E
330
1F
100
AcDbEntity
  8
0
  6
Continuous
 62
     7
370
    25
100
AcDbLine
 10
26.5307126368466
 20
34.62652178553111
 30
0.0
 11
25.21928736315342
 21
34.62652178553111
 31
0.0
  0
LINE
  5
63F
330
1F
100
AcDbEntity
  8
0
  6
Continuous
 62
     7
370
    25
100
AcDbLine
 10
26.32821263684672
 20
34.34602178553126
 30
0.0
 11
25.4217873631533
 21
34.34602178553126
 31
0.0
  0
LINE
  5
640
330
1F
100
AcDbEntity
  8
0
  6
Continuous
 62
     7
370
    25
100
AcDbLine
 10
26.53071263684659
 20
10.59293616373479
 30
0.0
 11
25.21928736315342
 21
10.59293616373479
 31
0.0
  0
LINE
  5
641
330
1F
100
AcDbEntity
  8
0
  6
Continuous
 62
     7
370
    25
100
AcDbLine
 10
26.32821263684671
 20
10.87343616373464
 30
0.0
 11
25.4217873631533
 21
10.87343616373464
 31
0.0
  0
LINE
  5
642
330
1F
100
AcDbEntity
  8
0
  6
Continuous
 62
     7
370
    25
100
AcDbLine
 10
25.23475000000163
 20
22.15942978791888
 30
0.0
 11
26.51524999999839
 21
22.15942978791888
 31
0.0
  0
LINE
  5
643
330
1F
100
AcDbEntity
  8
0
  6
Continuous
 62
     7
370
    25
100
AcDbLine
 10
25.23475000000163
 20
23.06002816134702
 30
0.0
 11
26.51524999999839
 21
23.06002816134702
 31
0.0
  0
LINE
  5
644
330
1F
100
AcDbEntity
  8
0
  6
Continuous
 62
     7
370
    25
100
AcDbLine
 10
25.43750000001031
 20
23.34121838359795
 30
0.0
 11
26.3124999999897
 21
23.34121838359795
 31
0.0
  0
LINE
  5
645
330
1F
100
AcDbEntity
  8
0
  6
Continuous
 62
     7
370
    25
100
AcDbLine
 10
25.43750000001031
 20
21.87823956566795
 30
0.0
 11
26.3124999999897
 21
21.87823956566795
 31
0.0
  0
LINE
  5
646
330
1F
100
AcDbEntity
  8
0
  6
Continuous
 62
     7
370
    25
100
AcDbLine
 10
26.26571263684674
 20
34.32691361794008
 30
0.0
 11
25.48428736315327
 21
34.32691361794008
 31
0.0
  0
LINE
  5
647
330
1F
100
AcDbEntity
  8
0
  6
Continuous
 62
     7
370
    25
100
AcDbLine
 10
26.26571263684674
 20
10.89254433132582
 30
0.0
 11
25.48428736315327
 21
10.89254433132582
 31
0.0
  0
LINE
  5
648
330
1F
100
AcDbEntity
  8
0
  6
Continuous
 62
     7
370
    25
100
AcDbLine
 10
26.26571263684674
 20
34.17691361794009
 30
0.0
 11
25.48428736315327
 21
34.17691361794009
 31
0.0
  0
LINE
  5
649
330
1F
100
AcDbEntity
  8
0
  6
Continuous
 62
     7
370
    25
100
AcDbLine
 10
26.26571263684674
 20
11.04254433132582
 30
0.0
 11
25.48428736315328
 21
11.04254433132582
 31
0.0
  0
LINE
  5
64A
330
1F
100
AcDbEntity
  8
0
  6
Continuous
 62
     7
370
    25
100
AcDbLine
 10
25.49000000001155
 20
23.49126924437487
 30
0.0
 11
26.25999999998846
 21
23.49126924437487
 31
0.0
  0
LINE
  5
64B
330
1F
100
AcDbEntity
  8
0
  6
Continuous
 62
     7
370
    25
100
AcDbLine
 10
25.49000000001155
 20
21.72818870489103
 30
0.0
 11
26.25999999998846
 21
21.72818870489103
 31
0.0
  0
LINE
  5
64C
330
1F
100
AcDbEntity
  8
0
  6
Continuous
 62
     7
370
    25
100
AcDbLine
 10
25.49000000001155
 20
23.35726924437486
 30
0.0
 11
26.25999999998846
 21
23.35726924437486
 31
0.0
  0
LINE
  5
64D
330
1F
100
AcDbEntity
  8
0
  6
Continuous
 62
     7
370
    25
100
AcDbLine
 10
25.49000000001155
 20
21.86218870489104
 30
0.0
 11
26.25999999998846
 21
21.86218870489104
 31
0.0
  0
LINE
  5
64E
330
1F
100
AcDbEntity
  8
0
  6
Continuous
 62
     7
370
    25
100
AcDbLine
 10
26.25000000000001
 20
0.0
 30
0.0
 11
25.50000000000001
 21
0.0
 31
0.0
  0
ARC
  5
64F
330
1F
100
AcDbEntity
  8
0
  6
Continuous
 62
     7
370
    25
100
AcDbCircle
 10
26.49874183401959
 20
34.97052178552669
 30
0.0
 40
0.2212581660103162
100
AcDbArc
 50
278.3080641087234
 51
81.69193589129985
  0
ARC
  5
650
330
1F
100
AcDbEntity
  8
0
  6
Continuous
 62
     7
370
    25
100
AcDbCircle
 10
25.25125816598042
 20
34.97052178552669
 30
0.0
 40
0.221258166010316
100
AcDbArc
 50
98.30806410870014
 51
261.6919358912801
  0
ARC
  5
651
330
1F
100
AcDbEntity
  8
0
  6
Continuous
 62
     7
370
    25
100
AcDbCircle
 10
26.49874183401959
 20
10.24893616373922
 30
0.0
 40
0.2212581660103113
100
AcDbArc
 50
278.3080641087106
 51
81.69193589127825
  0
ARC
  5
652
330
1F
100
AcDbEntity
  8
0
  6
Continuous
 62
     7
370
    25
100
AcDbCircle
 10
25.25125816598043
 20
10.24893616373922
 30
0.0
 40
0.2212581660103117
100
AcDbArc
 50
98.30806410872174
 51
261.6919358912922
  0
ARC
  5
653
330
1F
100
AcDbEntity
  8
0
  6
Continuous
 62
     7
370
    25
100
AcDbCircle
 10
25.39078662607418
 20
22.60972897463295
 30
0.0
 40
0.3607866260726432
100
AcDbArc
 50
115.6256890944938
 51
244.374310905508
  0
ARC
  5
654
330
1F
100
AcDbEntity
  8
0
  6
Continuous
 62
     7
370
    25
100
AcDbCircle
 10
26.35921337392584
 20
22.60972897463295
 30
0.0
 40
0.3607866260726432
100
AcDbArc
 50
295.625689094495
 51
64.37431090550622
  0
ARC
  5
655
330
1F
100
AcDbEntity
  8
0
  6
Continuous
 62
     7
370
    25
100
AcDbCircle
 10
24.89733372252564
 20
23.43745251647213
 30
0.0
 40
0.5446660327927961
100
AcDbArc
 50
7.369981209546943
 51
75.90244520866948
  0
ARC
  5
656
330
1F
100
AcDbEntity
  8
0
  6
Continuous
 62
     7
370
    25
100
AcDbCircle
 10
26.85266627747437
 20
23.43745251647213
 30
0.0
 40
0.5446660327928025
100
AcDbArc
 50
104.0975547913311
 51
172.6300187904528
  0
ARC
  5
657
330
1F
100
AcDbEntity
  8
0
  6
Continuous
 62
     7
370
    25
100
AcDbCircle
 10
24.89733372252564
 20
21.78200543279377
 30
0.0
 40
0.5446660327928026
100
AcDbArc
 50
284.0975547913326
 51
352.6300187904543
  0
ARC
  5
658
330
1F
100
AcDbEntity
  8
0
  6
Continuous
 62
     7
370
    25
100
AcDbCircle
 10
26.85266627747437
 20
21.78200543279377
 30
0.0
 40
0.5446660327927978
100
AcDbArc
 50
187.3699812095485
 51
255.9024452086711
  0
ARC
  5
659
330
1F
100
AcDbEntity
  8
0
  6
Continuous
 62
     7
370
    25
100
AcDbCircle
 10
25.04350528147564
 20
24.46542303943619
 30
0.0
 40
0.0627949281509299
100
AcDbArc
 50
273.0061319068245
 51
82.59109821826293
  0
ARC
  5
65A
330
1F
100
AcDbEntity
  8
0
  6
Continuous
 62
     7
370
    25
100
AcDbCircle
 10
26.70649471852437
 20
24.46542303943619
 30
0.0
 40
0.0627949281509287
100
AcDbArc
 50
97.4089017817371
 51
266.9938680931818
  0
ARC
  5
65B
330
1F
100
AcDbEntity
  8
0
  6
Continuous
 62
     7
370
    25
100
AcDbCircle
 10
25.04350528147564
 20
20.75403490982971
 30
0.0
 40
0.062794928150929
100
AcDbArc
 50
277.4089017817403
 51
86.99386809317866
  0
ARC
  5
65C
330
1F
100
AcDbEntity
  8
0
  6
Continuous
 62
     7
370
    25
100
AcDbCircle
 10
26.70649471852437
 20
20.75403490982971
 30
0.0
 40
0.0627949281509288
100
AcDbArc
 50
93.00613190682459
 51
262.5910982182629
  0
ARC
  5
65D
330
1F
100
AcDbEntity
  8
0
  6
Continuous
 62
     7
370
    25
100
AcDbCircle
 10
25.05792037317617
 20
20.37903576695754
 30
0.0
 40
0.0627949281509208
100
AcDbArc
 50
277.4089017816792
 51
86.99386809330167
  0
ARC
  5
65E
330
1F
100
AcDbEntity
  8
0
  6
Continuous
 62
     7
370
    25
100
AcDbCircle
 10
26.69207962682384
 20
20.37903576695754
 30
0.0
 40
0.0627949281509209
100
AcDbArc
 50
93.00613190669833
 51
262.591098218324
  0
ARC
  5
65F
330
1F
100
AcDbEntity
  8
0
  6
Continuous
 62
     7
370
    25
100
AcDbCircle
 10
25.05792037317617
 20
24.84042218230837
 30
0.0
 40
0.0627949281509244
100
AcDbArc
 50
273.0061319066983
 51
82.59109821832443
  0
ARC
  5
660
330
1F
100
AcDbEntity
  8
0
  6
Continuous
 62
     7
370
    25
100
AcDbCircle
 10
26.69207962682384
 20
24.84042218230837
 30
0.0
 40
0.0627949281509226
100
AcDbArc
 50
97.40890178167881
 51
266.9938680933017
  0
ARC
  5
661
330
1F
100
AcDbEntity
  8
0
  6
Continuous
 62
     7
370
    25
100
AcDbCircle
 10
26.63581685564805
 20
34.33729948853554
 30
0.0
 40
0.3077278568626137
100
AcDbArc
 50
109.9712909044075
 51
178.3757799801577
  0
ARC
  5
662
330
1F
100
AcDbEntity
  8
0
  6
Continuous
 62
     7
370
    25
100
AcDbCircle
 10
25.11418314435197
 20
34.33729948853554
 30
0.0
 40
0.3077278568626142
100
AcDbArc
 50
1.624220019842343
 51
70.02870909559248
  0
ARC
  5
663
330
1F
100
AcDbEntity
  8
0
  6
Continuous
 62
     7
370
    25
100
AcDbCircle
 10
26.63581685564805
 20
10.88215846073036
 30
0.0
 40
0.3077278568626206
100
AcDbArc
 50
181.6242200198433
 51
250.0287090955921
  0
ARC
  5
664
330
1F
100
AcDbEntity
  8
0
  6
Continuous
 62
     7
370
    25
100
AcDbCircle
 10
25.11418314435197
 20
10.88215846073036
 30
0.0
 40
0.3077278568626207
100
AcDbArc
 50
289.9712909044109
 51
358.37577998016
  0
ARC
  5
665
330
1F
100
AcDbEntity
  8
0
  6
Continuous
 62
     7
370
    25
100
AcDbCircle
 10
25.12567944022498
 20
23.35236338955717
 30
0.0
 40
0.3120196671087754
100
AcDbArc
 50
290.4605942393521
 51
357.953021128537
  0
ARC
  5
666
330
1F
100
AcDbEntity
  8
0
  6
Continuous
 62
     7
370
    25
100
AcDbCircle
 10
26.62432055977503
 20
23.35236338955716
 30
0.0
 40
0.3120196671087708
100
AcDbArc
 50
182.0469788714649
 51
249.5394057606512
  0
ARC
  5
667
330
1F
100
AcDbEntity
  8
0
  6
Continuous
 62
     7
370
    25
100
AcDbCircle
 10
25.12567944022498
 20
21.86709455970874
 30
0.0
 40
0.3120196671087717
100
AcDbArc
 50
2.046978871464264
 51
69.53940576064979
  0
ARC
  5
668
330
1F
100
AcDbEntity
  8
0
  6
Continuous
 62
     7
370
    25
100
AcDbCircle
 10
26.62432055977504
 20
21.86709455970874
 30
0.0
 40
0.3120196671087754
100
AcDbArc
 50
110.4605942393506
 51
177.9530211285358
  0
ENDSEC
  0
SECTION
  2
OBJECTS
  0
DICTIONARY
  5
C
330
0
100
AcDbDictionary
281
     1
  3
ACAD_COLOR
350
73
  3
ACAD_DETAILVIEWSTYLE
350
124
  3
ACAD_GROUP
350
D
  3
ACAD_IMAGE_VARS
350
DC
  3
ACAD_LAYOUT
350
1A
  3
ACAD_MATERIAL
350
72
  3
ACAD_MLEADERSTYLE
350
B5
  3
ACAD_MLINESTYLE
350
17
  3
ACAD_PLOTSETTINGS
350
19
  3
ACAD_PLOTSTYLENAME
350
E
  3
ACAD_SCALELIST
350
B6
  3
ACAD_SECTIONVIEWSTYLE
350
125
  3
ACAD_TABLESTYLE
350
86
  3
ACAD_VISUALSTYLE
350
99
  3
ACDB_RECOMPOSE_DATA
350
66B
  3
AcDbVariableDictionary
350
66
  3
APPDATA
350
E3
  0
SUN
  5
EF
330
94
100
AcDbSun
 90
        1
290
     0
 63
     7
421
 16777215
 40
1.0
291
     1
 91
  2455826
 92
 54000000
292
     0
 70
     2
 71
   256
280
     1
  0
DICTIONARY
  5
73
102
{ACAD_REACTORS
330
C
102
}
330
C
100
AcDbDictionary
281
     1
  0
DICTIONARY
  5
124
102
{ACAD_REACTORS
330
C
102
}
330
C
100
AcDbDictionary
281
     1
  0
DICTIONARY
  5
D
102
{ACAD_REACTORS
330
C
102
}
330
C
100
AcDbDictionary
281
     1
  0
RASTERVARIABLES
  5
DC
102
{ACAD_REACTORS
330
C
102
}
330
C
100
AcDbRasterVariables
 90
        0
 70
     1
 71
     1
 72
     5
  0
DICTIONARY
  5
1A
102
{ACAD_REACTORS
330
C
102
}
330
C
100
AcDbDictionary
281
     1
  3
Model
350
22
  3
Sheet1
350
59
  3
Sheet2
350
5E
  0
DICTIONARY
  5
72
102
{ACAD_REACTORS
330
C
102
}
330
C
100
AcDbDictionary
281
     1
  3
ByBlock
350
E4
  3
ByLayer
350
96
  3
Global
350
98
  0
DICTIONARY
  5
B5
102
{ACAD_REACTORS
330
C
102
}
330
C
100
AcDbDictionary
281
     1
  3
Standard
350
126
  0
DICTIONARY
  5
17
102
{ACAD_REACTORS
330
C
102
}
330
C
100
AcDbDictionary
281
     1
  3
Standard
350
18
  0
DICTIONARY
  5
19
102
{ACAD_REACTORS
330
C
102
}
330
C
100
AcDbDictionary
281
     1
  0
ACDBDICTIONARYWDFLT
  5
E
102
{ACAD_REACTORS
330
C
102
}
330
C
100
AcDbDictionary
281
     1
  3
Normal
350
F
100
AcDbDictionaryWithDefault
340
F
  0
DICTIONARY
  5
B6
102
{ACAD_REACTORS
330
C
102
}
330
C
100
AcDbDictionary
281
     1
  3
A0
350
B7
  3
A1
350
B8
  3
A2
350
B9
  3
A3
350
BA
  3
A4
350
BB
  3
A5
350
BC
  3
A6
350
BD
  3
A7
350
BE
  3
A8
350
BF
  3
A9
350
C0
  3
B0
350
C1
  3
B1
350
C2
  3
B2
350
C3
  3
B3
350
C4
  3
B4
350
C5
  3
B5
350
C6
  3
B6
350
C7
  3
B7
350
C8
  3
B8
350
C9
  3
B9
350
CA
  3
C0
350
CB
  3
C1
350
CC
  3
C2
350
CD
  3
C3
350
CE
  3
C4
350
CF
  3
C5
350
D0
  3
C6
350
D1
  3
C7
350
D2
  3
C8
350
D3
  3
C9
350
D4
  3
D0
350
D5
  3
D1
350
D6
  3
D2
350
D7
  0
DICTIONARY
  5
125
102
{ACAD_REACTORS
330
C
102
}
330
C
100
AcDbDictionary
281
     1
  0
DICTIONARY
  5
86
102
{ACAD_REACTORS
330
C
102
}
330
C
100
AcDbDictionary
281
     1
  3
Standard
350
87
  0
DICTIONARY
  5
99
102
{ACAD_REACTORS
330
C
102
}
330
C
100
AcDbDictionary
281
     1
  3
2dWireframe
350
9F
  3
3D Hidden
350
A1
  3
3dWireframe
350
A0
  3
Basic
350
9E
  3
Brighten
350
A5
  3
ColorChange
350
A9
  3
Conceptual
350
A2
  3
Dim
350
A4
  3
EdgeColorOff
350
E9
  3
Facepattern
350
A8
  3
Flat
350
9A
  3
FlatWithEdges
350
9B
  3
Gouraud
350
9C
  3
GouraudWithEdges
350
9D
  3
Hidden
350
E6
  3
JitterOff
350
E7
  3
Linepattern
350
A7
  3
OverhangOff
350
E8
  3
Realistic
350
A3
  3
Shaded
350
EE
  3
Shaded with edges
350
ED
  3
Shades of Gray
350
EA
  3
Sketchy
350
EB
  3
Thicken
350
A6
  3
Wireframe
350
E5
  3
X-Ray
350
EC
  0
XRECORD
  5
66B
102
{ACAD_REACTORS
330
C
102
}
330
C
100
AcDbXrecord
280
     1
 90
        1
330
87
  0
DICTIONARY
  5
66
102
{ACAD_REACTORS
330
C
102
}
330
C
100
AcDbDictionary
281
     1
  3
CANNOSCALE
350
D8
  3
CMLEADERSTYLE
350
12A
  3
CTABLESTYLE
350
89
  3
DIMASSOC
350
67
  3
HIDETEXT
350
6B
  3
LIGHTSINBLOCKS
350
DF
  3
XCLIPFRAME
350
E0
  0
DICTIONARY
  5
E3
102
{ACAD_REACTORS
330
C
102
}
330
C
100
AcDbDictionary
281
     1
  0
LAYOUT
  5
22
102
{ACAD_REACTORS
330
1A
102
}
330
1A
100
AcDbPlotSettings
  1

  2
none_device
  4
ANSI_A_(8.50_x_11.00_Inches)
  6

 40
6.35
 41
19.05
 42
6.35
 43
19.05
 44
215.9
 45
279.4
 46
11.11250000000003
 47
0.0000000000000142
 48
0.0
 49
0.0
140
0.0
141
0.0
142
1.0
143
1.263157894736842
 70
 11444
 72
     0
 73
     1
 74
     1
  7
monochrome.ctb
 75
     0
 76
     0
 77
     2
 78
   300
147
0.7916666666666665
148
-702.8076765758875
149
-496.2830551296954
100
AcDbLayout
  1
Model
 70
     1
 71
     0
 10
0.0
 20
0.0
 11
12.0
 21
9.0
 12
0.0
 22
0.0
 32
0.0
 14
-0.0000000000000009
 24
0.0
 34
0.0
 15
26.75000000000001
 25
42.00045794926591
 35
0.0
146
0.0
 13
0.0
 23
0.0
 33
0.0
 16
1.0
 26
0.0
 36
0.0
 17
0.0
 27
1.0
 37
0.0
 76
     0
330
1F
331
94
  0
LAYOUT
  5
59
102
{ACAD_REACTORS
330
1A
102
}
330
1A
100
AcDbPlotSettings
  1

  2
None
  4

  6

 40
0.0
 41
0.0
 42
0.0
 43
0.0
 44
0.0
 45
0.0
 46
0.0
 47
0.0
 48
0.0
 49
0.0
140
0.0
141
0.0
142
1.0
143
1.0
 70
   688
 72
     0
 73
     0
 74
     5
  7

 75
    16
 76
     0
 77
     2
 78
   300
147
1.0
148
0.0
149
0.0
100
AcDbLayout
  1
Sheet1
 70
     1
 71
     1
 10
0.0
 20
0.0
 11
12.0
 21
9.0
 12
0.0
 22
0.0
 32
0.0
 14
0.0
 24
0.0
 34
0.0
 15
0.0
 25
0.0
 35
0.0
146
0.0
 13
0.0
 23
0.0
 33
0.0
 16
1.0
 26
0.0
 36
0.0
 17
0.0
 27
1.0
 37
0.0
 76
     0
330
58
  0
LAYOUT
  5
5E
102
{ACAD_REACTORS
330
1A
102
}
330
1A
100
AcDbPlotSettings
  1

  2
None
  4

  6

 40
0.0
 41
0.0
 42
0.0
 43
0.0
 44
0.0
 45
0.0
 46
0.0
 47
0.0
 48
0.0
 49
0.0
140
0.0
141
0.0
142
1.0
143
1.0
 70
   688
 72
     0
 73
     0
 74
     5
  7

 75
    16
 76
     0
 77
     2
 78
   300
147
1.0
148
0.0
149
0.0
100
AcDbLayout
  1
Sheet2
 70
     1
 71
     2
 10
0.0
 20
0.0
 11
12.0
 21
9.0
 12
0.0
 22
0.0
 32
0.0
 14
0.0
 24
0.0
 34
0.0
 15
0.0
 25
0.0
 35
0.0
146
0.0
 13
0.0
 23
0.0
 33
0.0
 16
1.0
 26
0.0
 36
0.0
 17
0.0
 27
1.0
 37
0.0
 76
     0
330
5D
  0
MATERIAL
  5
E4
102
{ACAD_REACTORS
330
72
102
}
330
72
100
AcDbMaterial
  1
ByBlock
 72
     1
 94
      127
  0
MATERIAL
  5
96
102
{ACAD_REACTORS
330
72
102
}
330
72
100
AcDbMaterial
  1
ByLayer
 72
     1
 94
       63
  0
MATERIAL
  5
98
102
{ACAD_REACTORS
330
72
102
}
330
72
100
AcDbMaterial
  1
Global
 72
     1
 94
       63
  0
MLEADERSTYLE
  5
126
102
{ACAD_REACTORS
330
B5
102
}
330
B5
100
AcDbMLeaderStyle
179
     2
170
     2
171
     1
172
     0
 90
        2
 40
0.0
 41
0.0
173
     1
 91
-1056964608
340
14
 92
       -2
290
     1
 42
0.09
291
     1
 43
0.36
  3
Standard
341
0
 44
0.18
300

342
11
174
     1
178
     6
175
     1
176
     0
 93
-1056964608
 45
0.18
292
     0
297
     0
 46
0.18
343
0
 94
-1056964608
 47
1.0
 49
1.0
140
1.0
293
     1
141
0.0
294
     1
177
     0
142
1.0
295
     0
296
     0
143
0.125
271
     0
272
     9
273
     9
298
     0
  0
MLINESTYLE
  5
18
102
{ACAD_REACTORS
330
17
102
}
330
17
100
AcDbMlineStyle
  2
STANDARD
 70
     0
  3

 62
   256
 51
90.0
 52
90.0
 71
     2
 49
0.5
 62
   256
  6
BYLAYER
 49
-0.5
 62
   256
  6
BYLAYER
  0
ACDBPLACEHOLDER
  5
F
102
{ACAD_REACTORS
330
E
102
}
330
E
  0
SCALE
  5
B7
102
{ACAD_REACTORS
330
B6
102
}
330
B6
100
AcDbScale
 70
     0
300
1:1
140
1.0
141
1.0
290
     1
  0
SCALE
  5
B8
102
{ACAD_REACTORS
330
B6
102
}
330
B6
100
AcDbScale
 70
     0
300
1:2
140
1.0
141
2.0
290
     0
  0
SCALE
  5
B9
102
{ACAD_REACTORS
330
B6
102
}
330
B6
100
AcDbScale
 70
     0
300
1:4
140
1.0
141
4.0
290
     0
  0
SCALE
  5
BA
102
{ACAD_REACTORS
330
B6
102
}
330
B6
100
AcDbScale
 70
     0
300
1:5
140
1.0
141
5.0
290
     0
  0
SCALE
  5
BB
102
{ACAD_REACTORS
330
B6
102
}
330
B6
100
AcDbScale
 70
     0
300
1:8
140
1.0
141
8.0
290
     0
  0
SCALE
  5
BC
102
{ACAD_REACTORS
330
B6
102
}
330
B6
100
AcDbScale
 70
     0
300
1:10
140
1.0
141
10.0
290
     0
  0
SCALE
  5
BD
102
{ACAD_REACTORS
330
B6
102
}
330
B6
100
AcDbScale
 70
     0
300
1:16
140
1.0
141
16.0
290
     0
  0
SCALE
  5
BE
102
{ACAD_REACTORS
330
B6
102
}
330
B6
100
AcDbScale
 70
     0
300
1:20
140
1.0
141
20.0
290
     0
  0
SCALE
  5
BF
102
{ACAD_REACTORS
330
B6
102
}
330
B6
100
AcDbScale
 70
     0
300
1:30
140
1.0
141
30.0
290
     0
  0
SCALE
  5
C0
102
{ACAD_REACTORS
330
B6
102
}
330
B6
100
AcDbScale
 70
     0
300
1:40
140
1.0
141
40.0
290
     0
  0
SCALE
  5
C1
102
{ACAD_REACTORS
330
B6
102
}
330
B6
100
AcDbScale
 70
     0
300
1:50
140
1.0
141
50.0
290
     0
  0
SCALE
  5
C2
102
{ACAD_REACTORS
330
B6
102
}
330
B6
100
AcDbScale
 70
     0
300
1:100
140
1.0
141
100.0
290
     0
  0
SCALE
  5
C3
102
{ACAD_REACTORS
330
B6
102
}
330
B6
100
AcDbScale
 70
     0
300
2:1
140
2.0
141
1.0
290
     0
  0
SCALE
  5
C4
102
{ACAD_REACTORS
330
B6
102
}
330
B6
100
AcDbScale
 70
     0
300
4:1
140
4.0
141
1.0
290
     0
  0
SCALE
  5
C5
102
{ACAD_REACTORS
330
B6
102
}
330
B6
100
AcDbScale
 70
     0
300
8:1
140
8.0
141
1.0
290
     0
  0
SCALE
  5
C6
102
{ACAD_REACTORS
330
B6
102
}
330
B6
100
AcDbScale
 70
     0
300
10:1
140
10.0
141
1.0
290
     0
  0
SCALE
  5
C7
102
{ACAD_REACTORS
330
B6
102
}
330
B6
100
AcDbScale
 70
     0
300
100:1
140
100.0
141
1.0
290
     0
  0
SCALE
  5
C8
102
{ACAD_REACTORS
330
B6
102
}
330
B6
100
AcDbScale
 70
     0
300
1/128" = 1'-0"
140
0.0078125
141
12.0
290
     0
  0
SCALE
  5
C9
102
{ACAD_REACTORS
330
B6
102
}
330
B6
100
AcDbScale
 70
     0
300
1/64" = 1'-0"
140
0.015625
141
12.0
290
     0
  0
SCALE
  5
CA
102
{ACAD_REACTORS
330
B6
102
}
330
B6
100
AcDbScale
 70
     0
300
1/32" = 1'-0"
140
0.03125
141
12.0
290
     0
  0
SCALE
  5
CB
102
{ACAD_REACTORS
330
B6
102
}
330
B6
100
AcDbScale
 70
     0
300
1/16" = 1'-0"
140
0.0625
141
12.0
290
     0
  0
SCALE
  5
CC
102
{ACAD_REACTORS
330
B6
102
}
330
B6
100
AcDbScale
 70
     0
300
3/32" = 1'-0"
140
0.09375
141
12.0
290
     0
  0
SCALE
  5
CD
102
{ACAD_REACTORS
330
B6
102
}
330
B6
100
AcDbScale
 70
     0
300
1/8" = 1'-0"
140
0.125
141
12.0
290
     0
  0
SCALE
  5
CE
102
{ACAD_REACTORS
330
B6
102
}
330
B6
100
AcDbScale
 70
     0
300
3/16" = 1'-0"
140
0.1875
141
12.0
290
     0
  0
SCALE
  5
CF
102
{ACAD_REACTORS
330
B6
102
}
330
B6
100
AcDbScale
 70
     0
300
1/4" = 1'-0"
140
0.25
141
12.0
290
     0
  0
SCALE
  5
D0
102
{ACAD_REACTORS
330
B6
102
}
330
B6
100
AcDbScale
 70
     0
300
3/8" = 1'-0"
140
0.375
141
12.0
290
     0
  0
SCALE
  5
D1
102
{ACAD_REACTORS
330
B6
102
}
330
B6
100
AcDbScale
 70
     0
300
1/2" = 1'-0"
140
0.5
141
12.0
290
     0
  0
SCALE
  5
D2
102
{ACAD_REACTORS
330
B6
102
}
330
B6
100
AcDbScale
 70
     0
300
3/4" = 1'-0"
140
0.75
141
12.0
290
     0
  0
SCALE
  5
D3
102
{ACAD_REACTORS
330
B6
102
}
330
B6
100
AcDbScale
 70
     0
300
1" = 1'-0"
140
1.0
141
12.0
290
     0
  0
SCALE
  5
D4
102
{ACAD_REACTORS
330
B6
102
}
330
B6
100
AcDbScale
 70
     0
300
1-1/2" = 1'-0"
140
1.5
141
12.0
290
     0
  0
SCALE
  5
D5
102
{ACAD_REACTORS
330
B6
102
}
330
B6
100
AcDbScale
 70
     0
300
3" = 1'-0"
140
3.0
141
12.0
290
     0
  0
SCALE
  5
D6
102
{ACAD_REACTORS
330
B6
102
}
330
B6
100
AcDbScale
 70
     0
300
6" = 1'-0"
140
6.0
141
12.0
290
     0
  0
SCALE
  5
D7
102
{ACAD_REACTORS
330
B6
102
}
330
B6
100
AcDbScale
 70
     0
300
1'-0" = 1'-0"
140
12.0
141
12.0
290
     0
  0
TABLESTYLE
  5
87
102
{ACAD_REACTORS
330
86
102
}
102
{ACAD_XDICTIONARY
360
669
102
}
330
86
100
AcDbTableStyle
  3
Standard
 70
     0
 71
     0
 40
0.06
 41
0.06
280
     0
281
     0
  7
Standard
140
0.18
170
     2
 62
     0
 63
   257
283
     0
 90
      512
 91
        0
  1

274
    -2
284
     1
 64
     0
275
    -2
285
     1
 65
     0
276
    -2
286
     1
 66
     0
277
    -2
287
     1
 67
     0
278
    -2
288
     1
 68
     0
279
    -2
289
     1
 69
     0
  7
Standard
140
0.25
170
     5
 62
     0
 63
   257
283
     0
 90
      512
 91
        0
  1

274
    -2
284
     1
 64
     0
275
    -2
285
     1
 65
     0
276
    -2
286
     1
 66
     0
277
    -2
287
     1
 67
     0
278
    -2
288
     1
 68
     0
279
    -2
289
     1
 69
     0
  7
Standard
140
0.18
170
     5
 62
     0
 63
   257
283
     0
 90
      512
 91
        0
  1

274
    -2
284
     1
 64
     0
275
    -2
285
     1
 65
     0
276
    -2
286
     1
 66
     0
277
    -2
287
     1
 67
     0
278
    -2
288
     1
 68
     0
279
    -2
289
     1
 69
     0
  0
VISUALSTYLE
  5
9F
102
{ACAD_REACTORS
330
99
102
}
330
99
100
AcDbVisualStyle
  2
2dWireframe
 70
     4
177
     3
291
     0
 70
    58
 90
        0
176
     1
 90
        2
176
     1
 90
        1
176
     1
 90
        0
176
     1
 40
-0.6
176
     1
 40
-30.0
176
     1
 62
     7
420
 16777215
176
     1
 90
        1
176
     1
 90
        4
176
     1
 62
     7
176
     1
 62
   257
176
     1
 90
        1
176
     1
 90
        1
176
     1
 40
1.0
176
     1
 90
        0
176
     1
 62
   257
176
     1
 40
1.0
176
     1
 90
        1
176
     1
 90
        6
176
     1
 90
        2
176
     1
 62
     7
176
     1
 90
        5
176
     1
 90
        0
176
     1
 90
        0
176
     1
290
     0
176
     1
 90
        1
176
     1
 40
0.0
176
     1
 90
        0
176
     1
290
     1
176
     1
290
     1
176
     1
290
     0
176
     1
290
     0
176
     1
290
     0
176
     1
290
     0
176
     1
290
     0
176
     1
290
     0
176
     1
290
     0
176
     1
 90
       50
176
     1
 40
0.0
176
     1
 40
1.0
176
     1
 90
        0
176
     1
 62
    18
420
        0
176
     1
 90
       50
176
     1
 90
        3
176
     1
 62
     5
420
      255
176
     1
290
     0
176
     1
 90
       50
176
     1
 90
       50
176
     1
 90
       50
176
     1
290
     0
176
     1
 90
       50
176
     1
 62
   256
176
     0
 40
1.0
176
     0
 90
        2
176
     1
  1
strokes_ogs.tif
176
     1
290
     0
176
     1
 40
1.0
176
     1
 40
1.0
176
     1
  0
VISUALSTYLE
  5
A1
102
{ACAD_REACTORS
330
99
102
}
330
99
100
AcDbVisualStyle
  2
3D Hidden
 70
     6
177
     3
291
     0
 70
    58
 90
        1
176
     1
 90
        2
176
     1
 90
        2
176
     1
 90
        0
176
     1
 40
-0.6
176
     1
 40
-30.0
176
     1
 62
     7
420
 16777215
176
     1
 90
        2
176
     1
 90
        2
176
     1
 62
     7
176
     1
 62
   257
176
     1
 90
        2
176
     1
 90
        1
176
     1
 40
40.0
176
     1
 90
        0
176
     1
 62
   257
176
     1
 40
1.0
176
     1
 90
        1
176
     1
 90
        6
176
     1
 90
        2
176
     1
 62
     7
176
     1
 90
        3
176
     1
 90
        0
176
     1
 90
        0
176
     1
290
     0
176
     1
 90
        1
176
     1
 40
0.0
176
     1
 90
        0
176
     1
290
     0
176
     1
290
     1
176
     1
290
     1
176
     1
290
     0
176
     1
290
     0
176
     1
290
     0
176
     1
290
     0
176
     1
290
     0
176
     1
290
     0
176
     1
 90
       50
176
     1
 40
0.0
176
     1
 40
1.0
176
     1
 90
        0
176
     1
 62
    18
420
        0
176
     1
 90
       50
176
     1
 90
        3
176
     1
 62
     5
420
      255
176
     1
290
     0
176
     1
 90
       50
176
     1
 90
       50
176
     1
 90
       50
176
     1
290
     0
176
     1
 90
       50
176
     1
 62
   256
176
     0
 40
1.0
176
     0
 90
        2
176
     1
  1
strokes_ogs.tif
176
     1
290
     0
176
     1
 40
1.0
176
     1
 40
1.0
176
     1
  0
VISUALSTYLE
  5
A0
102
{ACAD_REACTORS
330
99
102
}
330
99
100
AcDbVisualStyle
  2
3dWireframe
 70
     5
177
     3
291
     0
 70
    58
 90
        0
176
     1
 90
        2
176
     1
 90
        1
176
     1
 90
        0
176
     1
 40
-0.6
176
     1
 40
-30.0
176
     1
 62
     7
420
 16777215
176
     1
 90
        1
176
     1
 90
        4
176
     1
 62
     7
176
     1
 62
   257
176
     1
 90
        1
176
     1
 90
        1
176
     1
 40
1.0
176
     1
 90
        0
176
     1
 62
   257
176
     1
 40
1.0
176
     1
 90
        1
176
     1
 90
        6
176
     1
 90
        2
176
     1
 62
     7
176
     1
 90
        5
176
     1
 90
        0
176
     1
 90
        0
176
     1
290
     0
176
     1
 90
        1
176
     1
 40
0.0
176
     1
 90
        0
176
     1
290
     0
176
     1
290
     1
176
     1
290
     1
176
     1
290
     0
176
     1
290
     0
176
     1
290
     0
176
     1
290
     0
176
     1
290
     0
176
     1
290
     0
176
     1
 90
       50
176
     1
 40
0.0
176
     1
 40
1.0
176
     1
 90
        0
176
     1
 62
    18
420
        0
176
     1
 90
       50
176
     1
 90
        3
176
     1
 62
     5
420
      255
176
     1
290
     0
176
     1
 90
       50
176
     1
 90
       50
176
     1
 90
       50
176
     1
290
     0
176
     1
 90
       50
176
     1
 62
   256
176
     0
 40
1.0
176
     0
 90
        2
176
     1
  1
strokes_ogs.tif
176
     1
290
     0
176
     1
 40
1.0
176
     1
 40
1.0
176
     1
  0
VISUALSTYLE
  5
9E
102
{ACAD_REACTORS
330
99
102
}
330
99
100
AcDbVisualStyle
  2
Basic
 70
     7
177
     3
291
     1
 70
    58
 90
        1
176
     1
 90
        0
176
     1
 90
        1
176
     1
 90
        0
176
     1
 40
-0.6
176
     1
 40
-30.0
176
     1
 62
     7
420
 16777215
176
     1
 90
        0
176
     1
 90
        4
176
     1
 62
     7
176
     1
 62
   257
176
     1
 90
        1
176
     1
 90
        1
176
     1
 40
1.0
176
     1
 90
        8
176
     1
 62
     7
176
     1
 40
1.0
176
     1
 90
        1
176
     1
 90
        6
176
     1
 90
        2
176
     1
 62
     7
176
     1
 90
        5
176
     1
 90
        0
176
     1
 90
        0
176
     1
290
     0
176
     1
 90
        1
176
     1
 40
0.0
176
     1
 90
        0
176
     1
290
     0
176
     1
290
     1
176
     1
290
     1
176
     1
290
     0
176
     1
290
     0
176
     1
290
     0
176
     1
290
     0
176
     1
290
     0
176
     1
290
     0
176
     1
 90
       50
176
     1
 40
0.0
176
     1
 40
1.0
176
     1
 90
        0
176
     1
 62
    18
420
        0
176
     1
 90
       50
176
     1
 90
        3
176
     1
 62
     5
420
      255
176
     1
290
     0
176
     1
 90
       50
176
     1
 90
       50
176
     1
 90
       50
176
     1
290
     0
176
     1
 90
       50
176
     1
 62
   256
176
     0
 40
1.0
176
     0
 90
        2
176
     1
  1
strokes_ogs.tif
176
     1
290
     0
176
     1
 40
1.0
176
     1
 40
1.0
176
     1
  0
VISUALSTYLE
  5
A5
102
{ACAD_REACTORS
330
99
102
}
330
99
100
AcDbVisualStyle
  2
Brighten
 70
    12
177
     3
291
     1
 70
    58
 90
        2
176
     1
 90
        2
176
     1
 90
        1
176
     1
 90
        0
176
     1
 40
-0.6
176
     1
 40
-30.0
176
     1
 62
     7
420
 16777215
176
     1
 90
        1
176
     1
 90
        4
176
     1
 62
     7
176
     1
 62
   257
176
     1
 90
        1
176
     1
 90
        1
176
     1
 40
1.0
176
     1
 90
        8
176
     1
 62
     7
176
     1
 40
1.0
176
     1
 90
        1
176
     1
 90
        6
176
     1
 90
        2
176
     1
 62
     7
176
     1
 90
        5
176
     1
 90
        0
176
     1
 90
        0
176
     1
290
     0
176
     1
 90
        1
176
     1
 40
50.0
176
     1
 90
        0
176
     1
290
     0
176
     1
290
     1
176
     1
290
     1
176
     1
290
     0
176
     1
290
     0
176
     1
290
     0
176
     1
290
     0
176
     1
290
     0
176
     1
290
     0
176
     1
 90
       50
176
     1
 40
0.0
176
     1
 40
1.0
176
     1
 90
        0
176
     1
 62
    18
420
        0
176
     1
 90
       50
176
     1
 90
        3
176
     1
 62
     5
420
      255
176
     1
290
     0
176
     1
 90
       50
176
     1
 90
       50
176
     1
 90
       50
176
     1
290
     0
176
     1
 90
       50
176
     1
 62
   256
176
     0
 40
1.0
176
     0
 90
        2
176
     1
  1
strokes_ogs.tif
176
     1
290
     0
176
     1
 40
1.0
176
     1
 40
1.0
176
     1
  0
VISUALSTYLE
  5
A9
102
{ACAD_REACTORS
330
99
102
}
330
99
100
AcDbVisualStyle
  2
ColorChange
 70
    16
177
     3
291
     1
 70
    58
 90
        2
176
     1
 90
        2
176
     1
 90
        3
176
     1
 90
        0
176
     1
 40
-0.6
176
     1
 40
-30.0
176
     1
 62
     8
420
  8421504
176
     1
 90
        1
176
     1
 90
        4
176
     1
 62
     7
176
     1
 62
   257
176
     1
 90
        1
176
     1
 90
        1
176
     1
 40
1.0
176
     1
 90
        8
176
     1
 62
     8
420
  8421504
176
     1
 40
1.0
176
     1
 90
        1
176
     1
 90
        6
176
     1
 90
        2
176
     1
 62
     7
176
     1
 90
        5
176
     1
 90
        0
176
     1
 90
        0
176
     1
290
     0
176
     1
 90
        1
176
     1
 40
0.0
176
     1
 90
        0
176
     1
290
     0
176
     1
290
     1
176
     1
290
     1
176
     1
290
     0
176
     1
290
     0
176
     1
290
     0
176
     1
290
     0
176
     1
290
     0
176
     1
290
     0
176
     1
 90
       50
176
     1
 40
0.0
176
     1
 40
1.0
176
     1
 90
        0
176
     1
 62
    18
420
        0
176
     1
 90
       50
176
     1
 90
        3
176
     1
 62
     5
420
      255
176
     1
290
     0
176
     1
 90
       50
176
     1
 90
       50
176
     1
 90
       50
176
     1
290
     0
176
     1
 90
       50
176
     1
 62
   256
176
     0
 40
1.0
176
     0
 90
        2
176
     1
  1
strokes_ogs.tif
176
     1
290
     0
176
     1
 40
1.0
176
     1
 40
1.0
176
     1
  0
VISUALSTYLE
  5
A2
102
{ACAD_REACTORS
330
99
102
}
330
99
100
AcDbVisualStyle
  2
Conceptual
 70
     9
177
     3
291
     0
 70
    58
 90
        3
176
     1
 90
        2
176
     1
 90
        1
176
     1
 90
        0
176
     1
 40
-0.6
176
     1
 40
-30.0
176
     1
 62
     7
420
 16777215
176
     1
 90
        2
176
     1
 90
        2
176
     1
 62
     7
176
     1
 62
   257
176
     1
 90
        1
176
     1
 90
        1
176
     1
 40
40.0
176
     1
 90
        8
176
     1
 62
     7
176
     1
 40
1.0
176
     1
 90
        1
176
     1
 90
        6
176
     1
 90
        2
176
     1
 62
     7
176
     1
 90
        3
176
     1
 90
        0
176
     1
 90
        0
176
     1
290
     0
176
     1
 90
        1
176
     1
 40
0.0
176
     1
 90
        0
176
     1
290
     0
176
     1
290
     1
176
     1
290
     1
176
     1
290
     0
176
     1
290
     0
176
     1
290
     0
176
     1
290
     0
176
     1
290
     0
176
     1
290
     0
176
     1
 90
       50
176
     1
 40
0.0
176
     1
 40
1.0
176
     1
 90
        0
176
     1
 62
    18
420
        0
176
     1
 90
       50
176
     1
 90
        3
176
     1
 62
     5
420
      255
176
     1
290
     0
176
     1
 90
       50
176
     1
 90
       50
176
     1
 90
       50
176
     1
290
     0
176
     1
 90
       50
176
     1
 62
   256
176
     0
 40
1.0
176
     0
 90
        2
176
     1
  1
strokes_ogs.tif
176
     1
290
     0
176
     1
 40
1.0
176
     1
 40
1.0
176
     1
  0
VISUALSTYLE
  5
A4
102
{ACAD_REACTORS
330
99
102
}
330
99
100
AcDbVisualStyle
  2
Dim
 70
    11
177
     3
291
     1
 70
    58
 90
        2
176
     1
 90
        2
176
     1
 90
        1
176
     1
 90
        0
176
     1
 40
-0.6
176
     1
 40
-30.0
176
     1
 62
     7
420
 16777215
176
     1
 90
        1
176
     1
 90
        4
176
     1
 62
     7
176
     1
 62
   257
176
     1
 90
        1
176
     1
 90
        1
176
     1
 40
1.0
176
     1
 90
        8
176
     1
 62
     7
176
     1
 40
1.0
176
     1
 90
        1
176
     1
 90
        6
176
     1
 90
        2
176
     1
 62
     7
176
     1
 90
        5
176
     1
 90
        0
176
     1
 90
        0
176
     1
290
     0
176
     1
 90
        1
176
     1
 40
-50.0
176
     1
 90
        0
176
     1
290
     0
176
     1
290
     1
176
     1
290
     1
176
     1
290
     0
176
     1
290
     0
176
     1
290
     0
176
     1
290
     0
176
     1
290
     0
176
     1
290
     0
176
     1
 90
       50
176
     1
 40
0.0
176
     1
 40
1.0
176
     1
 90
        0
176
     1
 62
    18
420
        0
176
     1
 90
       50
176
     1
 90
        3
176
     1
 62
     5
420
      255
176
     1
290
     0
176
     1
 90
       50
176
     1
 90
       50
176
     1
 90
       50
176
     1
290
     0
176
     1
 90
       50
176
     1
 62
   256
176
     0
 40
1.0
176
     0
 90
        2
176
     1
  1
strokes_ogs.tif
176
     1
290
     0
176
     1
 40
1.0
176
     1
 40
1.0
176
     1
  0
VISUALSTYLE
  5
E9
102
{ACAD_REACTORS
330
99
102
}
330
99
100
AcDbVisualStyle
  2
EdgeColorOff
 70
    22
177
     3
291
     1
 70
    58
 90
        2
176
     0
 90
        2
176
     0
 90
        0
176
     0
 90
        0
176
     0
 40
0.6
176
     0
 40
30.0
176
     0
 62
     7
420
 16777215
176
     0
 90
        1
176
     0
 90
        4
176
     0
 62
     7
176
     0
 62
   257
176
     0
 90
        1
176
     0
 90
        1
176
     0
 40
1.0
176
     0
 90
        8
176
     2
 62
     7
176
     0
 40
1.0
176
     0
 90
        1
176
     0
 90
        6
176
     0
 90
        2
176
     0
 62
     7
176
     0
 90
        5
176
     0
 90
        0
176
     0
 90
        0
176
     0
290
     0
176
     0
 90
        1
176
     0
 40
0.0
176
     0
 90
        0
176
     0
290
     0
176
     0
290
     1
176
     0
290
     1
176
     0
290
     0
176
     0
290
     0
176
     0
290
     0
176
     0
290
     0
176
     0
290
     0
176
     0
290
     0
176
     0
 90
       50
176
     0
 40
0.0
176
     0
 40
1.0
176
     0
 90
        0
176
     0
 62
    18
420
        0
176
     0
 90
       50
176
     0
 90
        3
176
     0
 62
     5
420
      255
176
     0
290
     0
176
     0
 90
       50
176
     0
 90
       50
176
     0
 90
       50
176
     0
290
     0
176
     0
 90
       50
176
     0
 62
   256
176
     0
 40
1.0
176
     0
 90
        2
176
     0
  1
strokes_ogs.tif
176
     0
290
     0
176
     0
 40
1.0
176
     0
 40
1.0
176
     0
  0
VISUALSTYLE
  5
A8
102
{ACAD_REACTORS
330
99
102
}
330
99
100
AcDbVisualStyle
  2
Facepattern
 70
    15
177
     3
291
     1
 70
    58
 90
        2
176
     1
 90
        2
176
     1
 90
        1
176
     1
 90
        0
176
     1
 40
-0.6
176
     1
 40
-30.0
176
     1
 62
     7
420
 16777215
176
     1
 90
        1
176
     1
 90
        4
176
     1
 62
     7
176
     1
 62
   257
176
     1
 90
        1
176
     1
 90
        1
176
     1
 40
1.0
176
     1
 90
        8
176
     1
 62
     7
176
     1
 40
1.0
176
     1
 90
        1
176
     1
 90
        6
176
     1
 90
        2
176
     1
 62
     7
176
     1
 90
        5
176
     1
 90
        0
176
     1
 90
        0
176
     1
290
     0
176
     1
 90
        1
176
     1
 40
0.0
176
     1
 90
        0
176
     1
290
     0
176
     1
290
     1
176
     1
290
     1
176
     1
290
     0
176
     1
290
     0
176
     1
290
     0
176
     1
290
     0
176
     1
290
     0
176
     1
290
     0
176
     1
 90
       50
176
     1
 40
0.0
176
     1
 40
1.0
176
     1
 90
        0
176
     1
 62
    18
420
        0
176
     1
 90
       50
176
     1
 90
        3
176
     1
 62
     5
420
      255
176
     1
290
     0
176
     1
 90
       50
176
     1
 90
       50
176
     1
 90
       50
176
     1
290
     0
176
     1
 90
       50
176
     1
 62
   256
176
     0
 40
1.0
176
     0
 90
        2
176
     1
  1
strokes_ogs.tif
176
     1
290
     0
176
     1
 40
1.0
176
     1
 40
1.0
176
     1
  0
VISUALSTYLE
  5
9A
102
{ACAD_REACTORS
330
99
102
}
330
99
100
AcDbVisualStyle
  2
Flat
 70
     0
177
     3
291
     1
 70
    58
 90
        2
176
     1
 90
        1
176
     1
 90
        1
176
     1
 90
        2
176
     1
 40
-0.6
176
     1
 40
30.0
176
     1
 62
     7
420
 16777215
176
     1
 90
        0
176
     1
 90
        4
176
     1
 62
     7
176
     1
 62
   257
176
     1
 90
        1
176
     1
 90
        1
176
     1
 40
1.0
176
     1
 90
        8
176
     1
 62
     7
176
     1
 40
1.0
176
     1
 90
        1
176
     1
 90
        6
176
     1
 90
        2
176
     1
 62
     7
176
     1
 90
        5
176
     1
 90
        0
176
     1
 90
        0
176
     1
290
     0
176
     1
 90
        1
176
     1
 40
0.0
176
     1
 90
        0
176
     1
290
     0
176
     1
290
     1
176
     1
290
     1
176
     1
290
     0
176
     1
290
     0
176
     1
290
     0
176
     1
290
     0
176
     1
290
     0
176
     1
290
     0
176
     1
 90
       50
176
     1
 40
0.0
176
     1
 40
1.0
176
     1
 90
        0
176
     1
 62
    18
420
        0
176
     1
 90
       50
176
     1
 90
        3
176
     1
 62
     5
420
      255
176
     1
290
     0
176
     1
 90
       50
176
     1
 90
       50
176
     1
 90
       50
176
     1
290
     0
176
     1
 90
       50
176
     1
 62
   256
176
     0
 40
1.0
176
     0
 90
        2
176
     1
  1
strokes_ogs.tif
176
     1
290
     0
176
     1
 40
1.0
176
     1
 40
1.0
176
     1
  0
VISUALSTYLE
  5
9B
102
{ACAD_REACTORS
330
99
102
}
330
99
100
AcDbVisualStyle
  2
FlatWithEdges
 70
     1
177
     3
291
     1
 70
    58
 90
        2
176
     1
 90
        1
176
     1
 90
        1
176
     1
 90
        2
176
     1
 40
-0.6
176
     1
 40
30.0
176
     1
 62
     7
420
 16777215
176
     1
 90
        1
176
     1
 90
        4
176
     1
 62
     7
176
     1
 62
   257
176
     1
 90
        1
176
     1
 90
        1
176
     1
 40
1.0
176
     1
 90
        0
176
     1
 62
   257
176
     1
 40
1.0
176
     1
 90
        1
176
     1
 90
        6
176
     1
 90
        2
176
     1
 62
     7
176
     1
 90
        5
176
     1
 90
        0
176
     1
 90
        0
176
     1
290
     0
176
     1
 90
        1
176
     1
 40
0.0
176
     1
 90
        0
176
     1
290
     0
176
     1
290
     1
176
     1
290
     1
176
     1
290
     0
176
     1
290
     0
176
     1
290
     0
176
     1
290
     0
176
     1
290
     0
176
     1
290
     0
176
     1
 90
       50
176
     1
 40
0.0
176
     1
 40
1.0
176
     1
 90
        0
176
     1
 62
    18
420
        0
176
     1
 90
       50
176
     1
 90
        3
176
     1
 62
     5
420
      255
176
     1
290
     0
176
     1
 90
       50
176
     1
 90
       50
176
     1
 90
       50
176
     1
290
     0
176
     1
 90
       50
176
     1
 62
   256
176
     0
 40
1.0
176
     0
 90
        2
176
     1
  1
strokes_ogs.tif
176
     1
290
     0
176
     1
 40
1.0
176
     1
 40
1.0
176
     1
  0
VISUALSTYLE
  5
9C
102
{ACAD_REACTORS
330
99
102
}
330
99
100
AcDbVisualStyle
  2
Gouraud
 70
     2
177
     3
291
     1
 70
    58
 90
        2
176
     1
 90
        2
176
     1
 90
        1
176
     1
 90
        2
176
     1
 40
-0.6
176
     1
 40
30.0
176
     1
 62
     7
420
 16777215
176
     1
 90
        0
176
     1
 90
        4
176
     1
 62
     7
176
     1
 62
   257
176
     1
 90
        1
176
     1
 90
        1
176
     1
 40
1.0
176
     1
 90
        0
176
     1
 62
     7
176
     1
 40
1.0
176
     1
 90
        1
176
     1
 90
        6
176
     1
 90
        2
176
     1
 62
     7
176
     1
 90
        5
176
     1
 90
        0
176
     1
 90
        0
176
     1
290
     0
176
     1
 90
        1
176
     1
 40
0.0
176
     1
 90
        0
176
     1
290
     0
176
     1
290
     1
176
     1
290
     1
176
     1
290
     0
176
     1
290
     0
176
     1
290
     0
176
     1
290
     0
176
     1
290
     0
176
     1
290
     0
176
     1
 90
       50
176
     1
 40
0.0
176
     1
 40
1.0
176
     1
 90
        0
176
     1
 62
    18
420
        0
176
     1
 90
       50
176
     1
 90
        3
176
     1
 62
     5
420
      255
176
     1
290
     0
176
     1
 90
       50
176
     1
 90
       50
176
     1
 90
       50
176
     1
290
     0
176
     1
 90
       50
176
     1
 62
   256
176
     0
 40
1.0
176
     0
 90
        2
176
     1
  1
strokes_ogs.tif
176
     1
290
     0
176
     1
 40
1.0
176
     1
 40
1.0
176
     1
  0
VISUALSTYLE
  5
9D
102
{ACAD_REACTORS
330
99
102
}
330
99
100
AcDbVisualStyle
  2
GouraudWithEdges
 70
     3
177
     3
291
     1
 70
    58
 90
        2
176
     1
 90
        2
176
     1
 90
        1
176
     1
 90
        2
176
     1
 40
-0.6
176
     1
 40
30.0
176
     1
 62
     7
420
 16777215
176
     1
 90
        1
176
     1
 90
        4
176
     1
 62
     7
176
     1
 62
   257
176
     1
 90
        1
176
     1
 90
        1
176
     1
 40
1.0
176
     1
 90
        0
176
     1
 62
   257
176
     1
 40
1.0
176
     1
 90
        1
176
     1
 90
        6
176
     1
 90
        2
176
     1
 62
     7
176
     1
 90
        5
176
     1
 90
        0
176
     1
 90
        0
176
     1
290
     0
176
     1
 90
        1
176
     1
 40
0.0
176
     1
 90
        0
176
     1
290
     0
176
     1
290
     1
176
     1
290
     1
176
     1
290
     0
176
     1
290
     0
176
     1
290
     0
176
     1
290
     0
176
     1
290
     0
176
     1
290
     0
176
     1
 90
       50
176
     1
 40
0.0
176
     1
 40
1.0
176
     1
 90
        0
176
     1
 62
    18
420
        0
176
     1
 90
       50
176
     1
 90
        3
176
     1
 62
     5
420
      255
176
     1
290
     0
176
     1
 90
       50
176
     1
 90
       50
176
     1
 90
       50
176
     1
290
     0
176
     1
 90
       50
176
     1
 62
   256
176
     0
 40
1.0
176
     0
 90
        2
176
     1
  1
strokes_ogs.tif
176
     1
290
     0
176
     1
 40
1.0
176
     1
 40
1.0
176
     1
  0
VISUALSTYLE
  5
E6
102
{ACAD_REACTORS
330
99
102
}
330
99
100
AcDbVisualStyle
  2
Hidden
 70
     6
177
     3
291
     0
 70
    58
 90
        1
176
     1
 90
        2
176
     1
 90
        2
176
     1
 90
        0
176
     1
 40
0.6
176
     1
 40
30.0
176
     1
 62
     7
420
 16777215
176
     1
 90
        2
176
     1
 90
        2
176
     1
 62
     7
176
     1
 62
   257
176
     1
 90
        2
176
     1
 90
        1
176
     1
 40
40.0
176
     1
 90
        0
176
     1
 62
   257
176
     1
 40
1.0
176
     1
 90
        1
176
     1
 90
        6
176
     1
 90
        2
176
     1
 62
     7
176
     1
 90
        3
176
     1
 90
        0
176
     1
 90
        0
176
     1
290
     0
176
     1
 90
        1
176
     1
 40
0.0
176
     1
 90
        0
176
     1
290
     0
176
     1
290
     1
176
     1
290
     1
176
     1
290
     0
176
     1
290
     0
176
     1
290
     0
176
     1
290
     0
176
     1
290
     0
176
     1
290
     0
176
     1
 90
       50
176
     1
 40
0.0
176
     1
 40
1.0
176
     1
 90
        0
176
     1
 62
    18
420
        0
176
     1
 90
       50
176
     1
 90
        3
176
     1
 62
     5
420
      255
176
     1
290
     0
176
     1
 90
       50
176
     1
 90
       50
176
     1
 90
       50
176
     1
290
     0
176
     1
 90
       50
176
     1
 62
   256
176
     0
 40
1.0
176
     0
 90
        2
176
     1
  1
strokes_ogs.tif
176
     1
290
     0
176
     1
 40
1.0
176
     1
 40
1.0
176
     1
  0
VISUALSTYLE
  5
E7
102
{ACAD_REACTORS
330
99
102
}
330
99
100
AcDbVisualStyle
  2
JitterOff
 70
    20
177
     3
291
     1
 70
    58
 90
        2
176
     0
 90
        2
176
     0
 90
        0
176
     0
 90
        0
176
     0
 40
0.6
176
     0
 40
30.0
176
     0
 62
     7
420
 16777215
176
     0
 90
        1
176
     0
 90
        4
176
     0
 62
     7
176
     0
 62
   257
176
     0
 90
        1
176
     0
 90
        1
176
     0
 40
1.0
176
     0
 90
       10
176
     2
 62
     7
176
     0
 40
1.0
176
     0
 90
        1
176
     0
 90
        6
176
     0
 90
        2
176
     0
 62
     7
176
     0
 90
        5
176
     0
 90
        0
176
     0
 90
        0
176
     0
290
     0
176
     0
 90
        1
176
     0
 40
0.0
176
     0
 90
        0
176
     0
290
     0
176
     0
290
     1
176
     0
290
     1
176
     0
290
     0
176
     0
290
     0
176
     0
290
     0
176
     0
290
     0
176
     0
290
     0
176
     0
290
     0
176
     0
 90
       50
176
     0
 40
0.0
176
     0
 40
1.0
176
     0
 90
        0
176
     0
 62
    18
420
        0
176
     0
 90
       50
176
     0
 90
        3
176
     0
 62
     5
420
      255
176
     0
290
     0
176
     0
 90
       50
176
     0
 90
       50
176
     0
 90
       50
176
     0
290
     0
176
     0
 90
       50
176
     0
 62
   256
176
     0
 40
1.0
176
     0
 90
        2
176
     0
  1
strokes_ogs.tif
176
     0
290
     0
176
     0
 40
1.0
176
     0
 40
1.0
176
     0
  0
VISUALSTYLE
  5
A7
102
{ACAD_REACTORS
330
99
102
}
330
99
100
AcDbVisualStyle
  2
Linepattern
 70
    14
177
     3
291
     1
 70
    58
 90
        2
176
     1
 90
        2
176
     1
 90
        1
176
     1
 90
        0
176
     1
 40
-0.6
176
     1
 40
-30.0
176
     1
 62
     7
420
 16777215
176
     1
 90
        1
176
     1
 90
        4
176
     1
 62
     7
176
     1
 62
   257
176
     1
 90
        7
176
     1
 90
        7
176
     1
 40
1.0
176
     1
 90
        8
176
     1
 62
     7
176
     1
 40
1.0
176
     1
 90
        1
176
     1
 90
        6
176
     1
 90
        2
176
     1
 62
     7
176
     1
 90
        5
176
     1
 90
        0
176
     1
 90
        0
176
     1
290
     0
176
     1
 90
        1
176
     1
 40
0.0
176
     1
 90
        0
176
     1
290
     0
176
     1
290
     1
176
     1
290
     1
176
     1
290
     0
176
     1
290
     0
176
     1
290
     0
176
     1
290
     0
176
     1
290
     0
176
     1
290
     0
176
     1
 90
       50
176
     1
 40
0.0
176
     1
 40
1.0
176
     1
 90
        0
176
     1
 62
    18
420
        0
176
     1
 90
       50
176
     1
 90
        3
176
     1
 62
     5
420
      255
176
     1
290
     0
176
     1
 90
       50
176
     1
 90
       50
176
     1
 90
       50
176
     1
290
     0
176
     1
 90
       50
176
     1
 62
   256
176
     0
 40
1.0
176
     0
 90
        2
176
     1
  1
strokes_ogs.tif
176
     1
290
     0
176
     1
 40
1.0
176
     1
 40
1.0
176
     1
  0
VISUALSTYLE
  5
E8
102
{ACAD_REACTORS
330
99
102
}
330
99
100
AcDbVisualStyle
  2
OverhangOff
 70
    21
177
     3
291
     1
 70
    58
 90
        2
176
     0
 90
        2
176
     0
 90
        0
176
     0
 90
        0
176
     0
 40
0.6
176
     0
 40
30.0
176
     0
 62
     7
420
 16777215
176
     0
 90
        1
176
     0
 90
        4
176
     0
 62
     7
176
     0
 62
   257
176
     0
 90
        1
176
     0
 90
        1
176
     0
 40
1.0
176
     0
 90
        9
176
     2
 62
     7
176
     0
 40
1.0
176
     0
 90
        1
176
     0
 90
        6
176
     0
 90
        2
176
     0
 62
     7
176
     0
 90
        5
176
     0
 90
        0
176
     0
 90
        0
176
     0
290
     0
176
     0
 90
        1
176
     0
 40
0.0
176
     0
 90
        0
176
     0
290
     0
176
     0
290
     1
176
     0
290
     1
176
     0
290
     0
176
     0
290
     0
176
     0
290
     0
176
     0
290
     0
176
     0
290
     0
176
     0
290
     0
176
     0
 90
       50
176
     0
 40
0.0
176
     0
 40
1.0
176
     0
 90
        0
176
     0
 62
    18
420
        0
176
     0
 90
       50
176
     0
 90
        3
176
     0
 62
     5
420
      255
176
     0
290
     0
176
     0
 90
       50
176
     0
 90
       50
176
     0
 90
       50
176
     0
290
     0
176
     0
 90
       50
176
     0
 62
   256
176
     0
 40
1.0
176
     0
 90
        2
176
     0
  1
strokes_ogs.tif
176
     0
290
     0
176
     0
 40
1.0
176
     0
 40
1.0
176
     0
  0
VISUALSTYLE
  5
A3
102
{ACAD_REACTORS
330
99
102
}
330
99
100
AcDbVisualStyle
  2
Realistic
 70
     8
177
     3
291
     0
 70
    58
 90
        2
176
     1
 90
        2
176
     1
 90
        1
176
     1
 90
        0
176
     1
 40
-0.6
176
     1
 40
-30.0
176
     1
 62
     7
420
 16777215
176
     1
 90
        1
176
     1
 90
        0
176
     1
 62
     7
176
     1
 62
   257
176
     1
 90
        1
176
     1
 90
        1
176
     1
 40
1.0
176
     1
 90
        8
176
     1
 62
     8
420
  7895160
176
     1
 40
1.0
176
     1
 90
        1
176
     1
 90
        6
176
     1
 90
        2
176
     1
 62
     7
176
     1
 90
        5
176
     1
 90
        0
176
     1
 90
        0
176
     1
290
     0
176
     1
 90
       13
176
     1
 40
0.0
176
     1
 90
        0
176
     1
290
     0
176
     1
290
     1
176
     1
290
     1
176
     1
290
     0
176
     1
290
     0
176
     1
290
     0
176
     1
290
     0
176
     1
290
     0
176
     1
290
     0
176
     1
 90
       50
176
     1
 40
0.0
176
     1
 40
1.0
176
     1
 90
        0
176
     1
 62
    18
420
        0
176
     1
 90
       50
176
     1
 90
        3
176
     1
 62
     5
420
      255
176
     1
290
     0
176
     1
 90
       50
176
     1
 90
       50
176
     1
 90
       50
176
     1
290
     0
176
     1
 90
       50
176
     1
 62
   256
176
     0
 40
1.0
176
     0
 90
        2
176
     1
  1
strokes_ogs.tif
176
     1
290
     0
176
     1
 40
1.0
176
     1
 40
1.0
176
     1
  0
VISUALSTYLE
  5
EE
102
{ACAD_REACTORS
330
99
102
}
330
99
100
AcDbVisualStyle
  2
Shaded
 70
    27
177
     3
291
     0
 70
    58
 90
        2
176
     1
 90
        2
176
     1
 90
        1
176
     1
 90
        2
176
     1
 40
0.6
176
     1
 40
30.0
176
     1
 62
     7
420
 16777215
176
     1
 90
        0
176
     1
 90
        4
176
     1
 62
     7
176
     1
 62
   257
176
     1
 90
        1
176
     1
 90
        1
176
     1
 40
1.0
176
     1
 90
        8
176
     1
 62
   257
176
     1
 40
1.0
176
     1
 90
        1
176
     1
 90
        6
176
     1
 90
        2
176
     1
 62
     8
420
  7895160
176
     1
 90
        3
176
     1
 90
        0
176
     1
 90
        0
176
     1
290
     0
176
     1
 90
        5
176
     1
 40
0.0
176
     1
 90
        0
176
     1
290
     0
176
     1
290
     1
176
     1
290
     1
176
     1
290
     0
176
     1
290
     0
176
     1
290
     0
176
     1
290
     0
176
     1
290
     0
176
     1
290
     0
176
     1
 90
       50
176
     1
 40
0.0
176
     1
 40
1.0
176
     1
 90
        0
176
     1
 62
    18
420
        0
176
     1
 90
       50
176
     1
 90
        3
176
     1
 62
     5
420
      255
176
     1
290
     0
176
     1
 90
       50
176
     1
 90
       50
176
     1
 90
       50
176
     1
290
     0
176
     1
 90
       50
176
     1
 62
   256
176
     0
 40
1.0
176
     0
 90
        2
176
     1
  1
strokes_ogs.tif
176
     1
290
     0
176
     1
 40
1.0
176
     1
 40
1.0
176
     1
  0
VISUALSTYLE
  5
ED
102
{ACAD_REACTORS
330
99
102
}
330
99
100
AcDbVisualStyle
  2
Shaded with edges
 70
    26
177
     3
291
     0
 70
    58
 90
        2
176
     1
 90
        2
176
     1
 90
        1
176
     1
 90
        2
176
     1
 40
0.6
176
     1
 40
30.0
176
     1
 62
     7
420
 16777215
176
     1
 90
        1
176
     1
 90
       10
176
     1
 62
     7
176
     1
 62
   257
176
     1
 90
        2
176
     1
 90
        1
176
     1
 40
1.0
176
     1
 90
        8
176
     1
 62
   257
176
     1
 40
1.0
176
     1
 90
        1
176
     1
 90
        6
176
     1
 90
        2
176
     1
 62
     7
176
     1
 90
        3
176
     1
 90
        0
176
     1
 90
        0
176
     1
290
     0
176
     1
 90
        5
176
     1
 40
0.0
176
     1
 90
        0
176
     1
290
     0
176
     1
290
     1
176
     1
290
     1
176
     1
290
     0
176
     1
290
     0
176
     1
290
     0
176
     1
290
     0
176
     1
290
     0
176
     1
290
     0
176
     1
 90
       50
176
     1
 40
0.0
176
     1
 40
1.0
176
     1
 90
        0
176
     1
 62
    18
420
        0
176
     1
 90
       50
176
     1
 90
        3
176
     1
 62
     5
420
      255
176
     1
290
     0
176
     1
 90
       50
176
     1
 90
       50
176
     1
 90
       50
176
     1
290
     0
176
     1
 90
       50
176
     1
 62
   256
176
     0
 40
1.0
176
     0
 90
        2
176
     1
  1
strokes_ogs.tif
176
     1
290
     0
176
     1
 40
1.0
176
     1
 40
1.0
176
     1
  0
VISUALSTYLE
  5
EA
102
{ACAD_REACTORS
330
99
102
}
330
99
100
AcDbVisualStyle
  2
Shades of Gray
 70
    23
177
     3
291
     0
 70
    58
 90
        2
176
     1
 90
        2
176
     1
 90
        3
176
     1
 90
        0
176
     1
 40
0.6
176
     1
 40
30.0
176
     1
 62
     7
420
 16777215
176
     1
 90
        2
176
     1
 90
        2
176
     1
 62
     7
176
     1
 62
     7
176
     1
 90
        1
176
     1
 90
        1
176
     1
 40
40.0
176
     1
 90
        8
176
     1
 62
     7
176
     1
 40
1.0
176
     1
 90
        1
176
     1
 90
        6
176
     1
 90
        2
176
     1
 62
     7
176
     1
 90
        3
176
     1
 90
        0
176
     1
 90
        0
176
     1
290
     0
176
     1
 90
        1
176
     1
 40
0.0
176
     1
 90
        0
176
     1
290
     0
176
     1
290
     1
176
     1
290
     1
176
     1
290
     0
176
     1
290
     0
176
     1
290
     0
176
     1
290
     0
176
     1
290
     0
176
     1
290
     0
176
     1
 90
       50
176
     1
 40
0.0
176
     1
 40
1.0
176
     1
 90
        0
176
     1
 62
    18
420
        0
176
     1
 90
       50
176
     1
 90
        3
176
     1
 62
     5
420
      255
176
     1
290
     0
176
     1
 90
       50
176
     1
 90
       50
176
     1
 90
       50
176
     1
290
     0
176
     1
 90
       50
176
     1
 62
   256
176
     0
 40
1.0
176
     0
 90
        2
176
     1
  1
strokes_ogs.tif
176
     1
290
     0
176
     1
 40
1.0
176
     1
 40
1.0
176
     1
  0
VISUALSTYLE
  5
EB
102
{ACAD_REACTORS
330
99
102
}
330
99
100
AcDbVisualStyle
  2
Sketchy
 70
    24
177
     3
291
     0
 70
    58
 90
        1
176
     1
 90
        2
176
     1
 90
        2
176
     1
 90
        0
176
     1
 40
0.6
176
     1
 40
30.0
176
     1
 62
     7
420
 16777215
176
     1
 90
        2
176
     1
 90
        2
176
     1
 62
     7
176
     1
 62
     7
176
     1
 90
        1
176
     1
 90
        1
176
     1
 40
40.0
176
     1
 90
       11
176
     1
 62
     7
176
     1
 40
1.0
176
     1
 90
        1
176
     1
 90
        6
176
     1
 90
        2
176
     1
 62
     7
176
     1
 90
        6
176
     1
 90
        0
176
     1
 90
        0
176
     1
290
     0
176
     1
 90
        1
176
     1
 40
0.0
176
     1
 90
        0
176
     1
290
     0
176
     1
290
     1
176
     1
290
     1
176
     1
290
     0
176
     1
290
     0
176
     1
290
     0
176
     1
290
     0
176
     1
290
     0
176
     1
290
     0
176
     1
 90
       50
176
     1
 40
0.0
176
     1
 40
1.0
176
     1
 90
        0
176
     1
 62
    18
420
        0
176
     1
 90
       50
176
     1
 90
        3
176
     1
 62
     5
420
      255
176
     1
290
     0
176
     1
 90
       50
176
     1
 90
       50
176
     1
 90
       50
176
     1
290
     0
176
     1
 90
       50
176
     1
 62
   256
176
     0
 40
1.0
176
     0
 90
        2
176
     1
  1
strokes_ogs.tif
176
     1
290
     0
176
     1
 40
1.0
176
     1
 40
1.0
176
     1
  0
VISUALSTYLE
  5
A6
102
{ACAD_REACTORS
330
99
102
}
330
99
100
AcDbVisualStyle
  2
Thicken
 70
    13
177
     3
291
     1
 70
    58
 90
        2
176
     1
 90
        2
176
     1
 90
        1
176
     1
 90
        0
176
     1
 40
-0.6
176
     1
 40
-30.0
176
     1
 62
     7
420
 16777215
176
     1
 90
        1
176
     1
 90
        4
176
     1
 62
     7
176
     1
 62
   257
176
     1
 90
        1
176
     1
 90
        1
176
     1
 40
1.0
176
     1
 90
       12
176
     1
 62
     7
176
     1
 40
1.0
176
     1
 90
        1
176
     1
 90
        6
176
     1
 90
        2
176
     1
 62
     7
176
     1
 90
        5
176
     1
 90
        0
176
     1
 90
        0
176
     1
290
     0
176
     1
 90
        1
176
     1
 40
0.0
176
     1
 90
        0
176
     1
290
     0
176
     1
290
     1
176
     1
290
     1
176
     1
290
     0
176
     1
290
     0
176
     1
290
     0
176
     1
290
     0
176
     1
290
     0
176
     1
290
     0
176
     1
 90
       50
176
     1
 40
0.0
176
     1
 40
1.0
176
     1
 90
        0
176
     1
 62
    18
420
        0
176
     1
 90
       50
176
     1
 90
        3
176
     1
 62
     5
420
      255
176
     1
290
     0
176
     1
 90
       50
176
     1
 90
       50
176
     1
 90
       50
176
     1
290
     0
176
     1
 90
       50
176
     1
 62
   256
176
     0
 40
1.0
176
     0
 90
        2
176
     1
  1
strokes_ogs.tif
176
     1
290
     0
176
     1
 40
1.0
176
     1
 40
1.0
176
     1
  0
VISUALSTYLE
  5
E5
102
{ACAD_REACTORS
330
99
102
}
330
99
100
AcDbVisualStyle
  2
Wireframe
 70
     5
177
     3
291
     0
 70
    58
 90
        0
176
     1
 90
        2
176
     1
 90
        0
176
     1
 90
        0
176
     1
 40
0.6
176
     1
 40
30.0
176
     1
 62
     7
420
 16777215
176
     1
 90
        1
176
     1
 90
        4
176
     1
 62
     7
176
     1
 62
   257
176
     1
 90
        1
176
     1
 90
        1
176
     1
 40
1.0
176
     1
 90
        0
176
     1
 62
   257
176
     1
 40
1.0
176
     1
 90
        1
176
     1
 90
        6
176
     1
 90
        2
176
     1
 62
     7
176
     1
 90
        3
176
     1
 90
        0
176
     1
 90
        0
176
     1
290
     0
176
     1
 90
        1
176
     1
 40
0.0
176
     1
 90
        0
176
     1
290
     0
176
     1
290
     1
176
     1
290
     1
176
     1
290
     0
176
     1
290
     0
176
     1
290
     0
176
     1
290
     0
176
     1
290
     0
176
     1
290
     0
176
     1
 90
       50
176
     1
 40
0.0
176
     1
 40
1.0
176
     1
 90
        0
176
     1
 62
    18
420
        0
176
     1
 90
       50
176
     1
 90
        3
176
     1
 62
     5
420
      255
176
     1
290
     0
176
     1
 90
       50
176
     1
 90
       50
176
     1
 90
       50
176
     1
290
     0
176
     1
 90
       50
176
     1
 62
   256
176
     0
 40
1.0
176
     0
 90
        2
176
     1
  1
strokes_ogs.tif
176
     1
290
     0
176
     1
 40
1.0
176
     1
 40
1.0
176
     1
  0
VISUALSTYLE
  5
EC
102
{ACAD_REACTORS
330
99
102
}
330
99
100
AcDbVisualStyle
  2
X-Ray
 70
    25
177
     3
291
     0
 70
    58
 90
        2
176
     1
 90
        2
176
     1
 90
        1
176
     1
 90
        1
176
     1
 40
0.5
176
     1
 40
30.0
176
     1
 62
     7
420
 16777215
176
     1
 90
        1
176
     1
 90
        0
176
     1
 62
     7
176
     1
 62
   257
176
     1
 90
        1
176
     1
 90
        1
176
     1
 40
1.0
176
     1
 90
        8
176
     1
 62
     7
176
     1
 40
1.0
176
     1
 90
        1
176
     1
 90
        6
176
     1
 90
        2
176
     1
 62
     7
176
     1
 90
        3
176
     1
 90
        0
176
     1
 90
        0
176
     1
290
     0
176
     1
 90
       13
176
     1
 40
0.0
176
     1
 90
        0
176
     1
290
     0
176
     1
290
     1
176
     1
290
     1
176
     1
290
     0
176
     1
290
     0
176
     1
290
     0
176
     1
290
     0
176
     1
290
     0
176
     1
290
     0
176
     1
 90
       50
176
     1
 40
0.0
176
     1
 40
1.0
176
     1
 90
        0
176
     1
 62
    18
420
        0
176
     1
 90
       50
176
     1
 90
        3
176
     1
 62
     5
420
      255
176
     1
290
     0
176
     1
 90
       50
176
     1
 90
       50
176
     1
 90
       50
176
     1
290
     0
176
     1
 90
       50
176
     1
 62
   256
176
     0
 40
1.0
176
     0
 90
        2
176
     1
  1
strokes_ogs.tif
176
     1
290
     0
176
     1
 40
1.0
176
     1
 40
1.0
176
     1
  0
DICTIONARYVAR
  5
D8
102
{ACAD_REACTORS
330
66
102
}
330
66
100
DictionaryVariables
280
     0
  1
1:1
  0
DICTIONARYVAR
  5
12A
102
{ACAD_REACTORS
330
66
102
}
330
66
100
DictionaryVariables
280
     0
  1
Standard
  0
DICTIONARYVAR
  5
89
102
{ACAD_REACTORS
330
66
102
}
330
66
100
DictionaryVariables
280
     0
  1
Standard
  0
DICTIONARYVAR
  5
67
102
{ACAD_REACTORS
330
66
102
}
330
66
100
DictionaryVariables
280
     0
  1
2
  0
DICTIONARYVAR
  5
6B
102
{ACAD_REACTORS
330
66
102
}
330
66
100
DictionaryVariables
280
     0
  1
1
  0
DICTIONARYVAR
  5
DF
102
{ACAD_REACTORS
330
66
102
}
330
66
100
DictionaryVariables
280
     0
  1
0
  0
DICTIONARYVAR
  5
E0
102
{ACAD_REACTORS
330
66
102
}
330
66
100
DictionaryVariables
280
     0
  1
0
  0
DICTIONARY
  5
669
330
87
100
AcDbDictionary
280
     1
281
     1
  3
ACAD_ROUNDTRIP_2008_TABLESTYLE_CELLSTYLEMAP
360
66A
  0
CELLSTYLEMAP
  5
66A
102
{ACAD_REACTORS
330
669
102
}
330
669
100
AcDbCellStyleMap
 90
        3
300
CELLSTYLE
  1
TABLEFORMAT_BEGIN
 90
        5
170
     1
 91
        0
 92
    32768
 62
   257
 93
        1
300
CONTENTFORMAT
  1
CONTENTFORMAT_BEGIN
 90
        0
 91
        0
 92
      512
 93
        0
300

 40
0.0
140
1.0
 94
        5
 62
     0
340
11
144
0.25
309
CONTENTFORMAT_END
171
     0
 94
        6
 95
        1
302
GRIDFORMAT
  1
GRIDFORMAT_BEGIN
 90
        0
 91
        1
 62
     0
 92
       -2
340
0
 93
        0
 40
0.045
309
GRIDFORMAT_END
 95
        2
302
GRIDFORMAT
  1
GRIDFORMAT_BEGIN
 90
        0
 91
        1
 62
     0
 92
       -2
340
0
 93
        0
 40
0.045
309
GRIDFORMAT_END
 95
        4
302
GRIDFORMAT
  1
GRIDFORMAT_BEGIN
 90
        0
 91
        1
 62
     0
 92
       -2
340
0
 93
        0
 40
0.045
309
GRIDFORMAT_END
 95
        8
302
GRIDFORMAT
  1
GRIDFORMAT_BEGIN
 90
        0
 91
        1
 62
     0
 92
       -2
340
0
 93
        0
 40
0.045
309
GRIDFORMAT_END
 95
       16
302
GRIDFORMAT
  1
GRIDFORMAT_BEGIN
 90
        0
 91
        1
 62
     0
 92
       -2
340
0
 93
        0
 40
0.045
309
GRIDFORMAT_END
 95
       32
302
GRIDFORMAT
  1
GRIDFORMAT_BEGIN
 90
        0
 91
        1
 62
     0
 92
       -2
340
0
 93
        0
 40
0.045
309
GRIDFORMAT_END
309
TABLEFORMAT_END
  1
CELLSTYLE_BEGIN
 90
        1
 91
        1
300
_TITLE
309
CELLSTYLE_END
300
CELLSTYLE
  1
TABLEFORMAT_BEGIN
 90
        5
170
     1
 91
        0
 92
        0
 62
   257
 93
        1
300
CONTENTFORMAT
  1
CONTENTFORMAT_BEGIN
 90
        0
 91
        0
 92
      512
 93
        0
300

 40
0.0
140
1.0
 94
        5
 62
     0
340
11
144
0.18
309
CONTENTFORMAT_END
171
     0
 94
        6
 95
        1
302
GRIDFORMAT
  1
GRIDFORMAT_BEGIN
 90
        0
 91
        1
 62
     0
 92
       -2
340
0
 93
        0
 40
0.045
309
GRIDFORMAT_END
 95
        2
302
GRIDFORMAT
  1
GRIDFORMAT_BEGIN
 90
        0
 91
        1
 62
     0
 92
       -2
340
0
 93
        0
 40
0.045
309
GRIDFORMAT_END
 95
        4
302
GRIDFORMAT
  1
GRIDFORMAT_BEGIN
 90
        0
 91
        1
 62
     0
 92
       -2
340
0
 93
        0
 40
0.045
309
GRIDFORMAT_END
 95
        8
302
GRIDFORMAT
  1
GRIDFORMAT_BEGIN
 90
        0
 91
        1
 62
     0
 92
       -2
340
0
 93
        0
 40
0.045
309
GRIDFORMAT_END
 95
       16
302
GRIDFORMAT
  1
GRIDFORMAT_BEGIN
 90
        0
 91
        1
 62
     0
 92
       -2
340
0
 93
        0
 40
0.045
309
GRIDFORMAT_END
 95
       32
302
GRIDFORMAT
  1
GRIDFORMAT_BEGIN
 90
        0
 91
        1
 62
     0
 92
       -2
340
0
 93
        0
 40
0.045
309
GRIDFORMAT_END
309
TABLEFORMAT_END
  1
CELLSTYLE_BEGIN
 90
        2
 91
        1
300
_HEADER
309
CELLSTYLE_END
300
CELLSTYLE
  1
TABLEFORMAT_BEGIN
 90
        5
170
     1
 91
        0
 92
        0
 62
   257
 93
        1
300
CONTENTFORMAT
  1
CONTENTFORMAT_BEGIN
 90
        0
 91
        0
 92
      512
 93
        0
300

 40
0.0
140
1.0
 94
        2
 62
     0
340
11
144
0.18
309
CONTENTFORMAT_END
171
     0
 94
        6
 95
        1
302
GRIDFORMAT
  1
GRIDFORMAT_BEGIN
 90
        0
 91
        1
 62
     0
 92
       -2
340
0
 93
        0
 40
0.045
309
GRIDFORMAT_END
 95
        2
302
GRIDFORMAT
  1
GRIDFORMAT_BEGIN
 90
        0
 91
        1
 62
     0
 92
       -2
340
0
 93
        0
 40
0.045
309
GRIDFORMAT_END
 95
        4
302
GRIDFORMAT
  1
GRIDFORMAT_BEGIN
 90
        0
 91
        1
 62
     0
 92
       -2
340
0
 93
        0
 40
0.045
309
GRIDFORMAT_END
 95
        8
302
GRIDFORMAT
  1
GRIDFORMAT_BEGIN
 90
        0
 91
        1
 62
     0
 92
       -2
340
0
 93
        0
 40
0.045
309
GRIDFORMAT_END
 95
       16
302
GRIDFORMAT
  1
GRIDFORMAT_BEGIN
 90
        0
 91
        1
 62
     0
 92
       -2
340
0
 93
        0
 40
0.045
309
GRIDFORMAT_END
 95
       32
302
GRIDFORMAT
  1
GRIDFORMAT_BEGIN
 90
        0
 91
        1
 62
     0
 92
       -2
340
0
 93
        0
 40
0.045
309
GRIDFORMAT_END
309
TABLEFORMAT_END
  1
CELLSTYLE_BEGIN
 90
        3
 91
        2
300
_DATA
309
CELLSTYLE_END
  0
ENDSEC
  0
EOF
